Guitar Tabs, Chords and Lyrics


By My Side   Ben Harper








BY MY SIDE
As recorded by Dream Evil

Transcribed by cbliss66@aol.com
	



Gtr I (D G C F A D) - 'Heavy Dist.'
Gtr II (D G C F A D) - 'Heavy Dist.'

 Intro
  Q=150
  D5
 4/4
  Gtr I
    PM|     PM----|     PM|       PM----|     PM----|     PM|
  E S S S S S S S S S S S S S S   S S S S S S S S S S S S S S S S
|-------------------------------|---------------------------------|
|-------------------------------|---------------------------------|
|-------------------------------|---------------------------------|
|-------------------5h7---------|---------------------4h5-----5h7-|
|-2-----5h7-----------------5h7-|---------5h7---------------------|
|-0-0-0-----0-0-0-0-----0-0-----|-0-0-0-0-----0-0-0-0-----0-0-----|
|
| Gtr II
| E H               E   E   E     W
|-------------------------------|---------------------------------|
|-------------------------------|---------------------------------|
|-------------------------------|---------------------------------|
|-2-----------------2-------2---|---------------------------------|
|-2-----------------2-------2---|---------------------------------|
|-0-----------------0-------0---|---------------------------------|


                                                  E5      F5      G5
    PM|     PM----|     PM|       PM----|     PM|
  E S S S S S S S S S S S S S S   S S S S S S S S  E  +S   E  +S   E
|-------------------------------|-------------------------------------||
|-------------------------------|-------------------------------------||
|-------------------------------|-------------------------------------||
|-------------------5h7---------|-----------------11-(11)-12-(12)-14--||
|-2-----5h7-----------------5h7-|---------5h7------9--(9)-10-(10)-12--||
|-0-0-0-----0-0-0-0-----0-0-----|-0-0-0-0-----0-0---------------------||
|
| E H               E   E   E     H                E  +S   E  +S   E
|-------------------------------|-------------------------------------||
|-------------------------------|-------------------------------------||
|-------------------------------|-------------------------------------||
|-2-----------------2-------2---|-----------------11-(11)-12-(12)-14--||
|-2-----------------2-------2---|------------------9--(9)-10-(10)-12--||
|-0-----------------0-------0---|-------------------------------------||


  N.C.(D)
    Gtrs I, II
  PM----|     PM----|     PM|       PM----|     PM----|     PM|
  S S S S S S S S S S S S S S S S   S S S S S S S S S S S S S S S S
|---------------------------------|---------------------------------|
|---------------------------------|---------------------------------|
|---------------------------------|---------------------------------|
|---------------------5h7---------|---------------------4h5-----5h7-|
|---------5h7-----------------5h7-|---------5h7---------------------|
|-0-0-0-0-----0-0-0-0-----0-0-----|-0-0-0-0-----0-0-0-0-----0-0-----|


                                                    F5 Bb5C5     Bb5C5 D5
  PM----|     PM----|     PM|       PM----|     PM|
  S S S S S S S S S S S S S S S S   S S S S S S S S E. E. E   Q  E. E. E Q
|---------------------------------|-------------------------|---------------||
|---------------------------------|-------------------------|---------------||
|---------------------------------|-------------------------|---------------||
|---------------------5h7---------|--------------------5--7-|----5--7--9----||
|---------5h7-----------------5h7-|---------5h7-----5--3--5-|----3--5--7----||
|-0-0-0-0-----0-0-0-0-----0-0-----|-0-0-0-0-----0-0-3-------|---------------||


   Verse
    $
    (E5)
    PM----|   PM----|   PM|
    S S S S E S S S S E S S E
||----------------------------|
||o---------------------------|
||----------------------------|
||----------------------------|
||o---------4---------4-----4-|
||--2-2-2-2-2-2-2-2-2-2-2-2-2-|


                              (D5)
  PM----|   PM----|   PM|     PM----|   PM----|   PM|
  S S S S E S S S S E S S E   S S S S E S S S S E S S E
|---------------------------|----------------------------|
|---------------------------|----------------------------|
|---------------------------|----------------------------|
|---------------------------|----------------------------|
|---------4---------4-----4-|---------2---------2-----2--|
|-2-2-2-2-2-2-2-2-2-2-2-2-2-|-0-0-0-0-0-0-0-0-0-0-0-0-0--|


                F#5G5 A5  (E5)
  PM----|   PM|           PM----|   PM----|   PM|
  S S S S E S S E. E. E   S S S S E S S S S E S S E
|-----------------------|---------------------------|
|-----------------------|---------------------------|
|-----------------------|---------------------------|
|-----------------------|---------------------------|
|---------2-----6--7--9-|---------4---------4-----4-|
|-0-0-0-0-0-0-0-4--5--7-|-2-2-2-2-2-2-2-2-2-2-2-2-2-|


  PM----|   PM----|   PM|
  S S S S E S S S S E S S E
|---------------------------|
|---------------------------|
|---------------------------|
|---------------------------|
|---------4---------4-----4-|
|-2-2-2-2-2-2-2-2-2-2-2-2-2-|


  (D5)
  PM----|   PM----|   PM|     PM----|   PM----|   PM|
  S S S S E S S S S E S S E   S S S S E S S S S E S S E
|---------------------------|----------------------------||
|---------------------------|---------------------------o||
|---------------------------|----------------------------||
|---------------------------|----------------------------||
|---------2---------2-----2-|---------2---------2-----2-o||
|-0-0-0-0-0-0-0-0-0-0-0-0-0-|-0-0-0-0-0-0-0-0-0-0-0-0-0--||


 Pre-Chorus
  Bb5                     C5
  W          +W           W          +W
|----------|------------|----------|--------|
|----------|------------|----------|--------|
|-5--------|-(5)--------|-7--------|-(7)----|
|-5--------|-(5)--------|-7--------|-(7)----|
|-3--------|-(3)--------|-5--------|-(5)----|
|----------|------------|----------|--------|


  (D5)
  PM----|     PM----|     PM|       PM----|     PM--------------|
  S S S S S S S S S S S S S S S S   S S S S S S S S S S S S S S S S
|---------------------------------|---------------------------------|
|---------------------------------|---------------------------------|
|---------------------------------|---------------------------------|
|---------4h5---------4h5-----4h5-|---------4h5---------------------|
|---------5h7---------5h7-----5h7-|---------5h7-------------5-------|
|-0-0-0-0-----0-0-0-0-----0-0-----|-0-0-0-0-----0-0-0-0-0-0---0-0-0-|


  Bb5                     C5
  W          +W           W          +W
|----------|------------|----------|--------|
|----------|------------|----------|--------|
|-5--------|-(5)--------|-7--------|-(7)----|
|-5--------|-(5)--------|-7--------|-(7)----|
|-3--------|-(3)--------|-5--------|-(5)----|
|----------|------------|----------|--------|


                           Chorus
  D5   A5     Bb5  F5 C5    N.C.(D)
                            PM----|     PM----|     PM|
  H    H      H    Q  Q     S S S S S S S S S S S S S S S S
|-----------|------------||---------------------------------|
|-----------|------------||---------------------------------|
|-9----4----|-5-------7--||---------------------------------|
|-9----4----|-5----5--7--||---------------------5h7---------|
|-7----2----|-3----5--5--||---------5h7-----------------5h7-|
|-----------|------3-----||-0-0-0-0-----0-0-0-0-----0-0-----|


  PM----|     PM----|     PM|       PM----|     PM----|     PM|
  S S S S S S S S S S S S S S S S   S S S S S S S S S S S S S S S S
|---------------------------------|---------------------------------|
|---------------------------------|---------------------------------|
|---------------------------------|---------------------------------|
|---------------------4h5-----5h7-|---------------------5h7---------|
|---------5h7---------------------|---------5h7-----------------5h7-|
|-0-0-0-0-----0-0-0-0-----0-0-----|-0-0-0-0-----0-0-0-0-----0-0-----|


                  E5      F5      G5   N.C.(Bb)
  PM----|     PM|                      PM----|     PM----|     PM|
  S S S S S S S S  E  +S   E  +S   E   S S S S S S S S S S S S S S S S
|------------------------------------|---------------------------------|
|------------------------------------|---------------------------------|
|------------------------------------|---------------------------------|
|-----------------11-(11)-12-(12)-14-|---------------------5h7---------|
|---------5h7------9--(9)-10-(10)-12-|-3-3-3-3-5h7-3-3-3-3-----3-3-5h7-|
|-0-0-0-0-----0-0--------------------|---------------------------------|


                                    N.C.(G)
  PM----|     PM----|     PM|       PM----|     PM----|     PM|
  S S S S S S S S S S S S S S S S   S S S S S S S S S S S S S S S S
|---------------------------------|---------------------------------|
|---------------------------------|---------------------------------|
|---------------------------------|---------------------------------|
|---------------------4h5-----5h7-|---------------------5h7---------|
|-3-3-3-3-5h7-3-3-3-3-----3-3-----|-0-0-0-0-5h7-0-0-0-0-----0-0-5h7-|
|---------------------------------|---------------------------------|


  To Coda
  F5   C5     N.C.(D)
              PM----|     PM----|     PM|
  H    H      S S S S S S S S S S S S S S S S
|-----------|---------------------------------|
|-----------|---------------------------------|
|------7----|---------------------------------|
|-5----7----|---------------------5h7---------|
|-5----5----|---------5h7-----------------5h7-|
|-3---------|-0-0-0-0-----0-0-0-0-----0-0-----|


  PM----|     PM----|     PM|
  S S S S S S S S S S S S S S S S
|----------------------------------|
|----------------------------------|
|----------------------------------|
|---------------------4h5-----5h7--|
|---------5h7----------------------|
|-0-0-0-0-----0-0-0-0-----0-0------|


                                              D.S. al Coda
                                                    F5 Bb5C5
  PM----|     PM----|     PM|       PM----|     PM|
  S S S S S S S S S S S S S S S S   S S S S S S S S E. E. E
|---------------------------------|-------------------------||
|---------------------------------|-------------------------||
|---------------------------------|-------------------------||
|---------------------5h7---------|--------------------5--7-||
|---------5h7-----------------5h7-|---------5h7-----5--3--5-||
|-0-0-0-0-----0-0-0-0-----0-0-----|-0-0-0-0-----0-0-3-------||


 Bridge
  &
  (A5)
  Gtr I
  E E E     H       +E    +W
|-----------------------|-------------------|
|-----------------------|-------------------|
|-----------------------|-------------------|
|-----------9-------(9)-|-(9)---------------|
|-----9-----------------|-------------------|
|-5h7-------------------|-------------------|
|
| Gtr II
| PM|         PM--|        PM   PM-----------
| E E S +S  E E E E  E     E  E E E E E E E
|-----------------------|-------------------|
|-----------------------|-------------------|
|-----------------------|-------------------|
|-----7-(7)s9--------9--|-----9-------------|
|---9----------------9--|-----9-------------|
|-7-----------7-7-7--7--|--7--7-7-7-7-7-7-7-|


  (G5)                                      Bb5
  S +S  E E     H       +E    +H        +E  Q  E
|---------------------------|--------------------|
|---------------------------|--------------------|
|---------------------------|---------------5--5-|
|---------------7-------(7)-|-(7)-------(7)-5--5-|
|---------7-----------------|---------------3--3-|
|-7-(7)s5-------------------|--------------------|
|
|-------|         PM--|        PM   PM--|
| E     E S +S  E E E E  E     E  E E E  E  Q  E
|---------------------------|--------------------|
|---------------------------|--------------------|
|---------------------------|---------------5--5-|
|---------7-(7)s9--------7--|-----7---------5--5-|
|-------7----------------7--|-----7---------3--3-|
|-5---------------5-5-5--5--|--5--5-5-5--5-------|


  (A5)
  E E E     H       +E    +W
|-----------------------|-------------------|
|-----------------------|-------------------|
|-----------------------|-------------------|
|-----------9-------(9)-|-(9)---------------|
|-----9-----------------|-------------------|
|-5h7-------------------|-------------------|
|
| PM|         PM--|        PM   PM-----------
| E E S +S  E E E E  E     E  E E E E E E E
|-----------------------|-------------------|
|-----------------------|-------------------|
|-----------------------|-------------------|
|-----7-(7)s9--------9--|-----9-------------|
|---9----------------9--|-----9-------------|
|-7-----------7-7-7--7--|--7--7-7-7-7-7-7-7-|


  (G5)                                      F5
  S +S  E E     H       +E    +H        +E  Q.
|---------------------------|--------------------|
|---------------------------|--------------------|
|---------------------------|--------------------|
|---------------7-------(7)-|-(7)-------(7)-5----|
|---------7-----------------|---------------5----|
|-7-(7)s5-------------------|---------------3----|
|
|-------|         PM--|        PM   PM--|
| E     E S +S  E E E E  E     E  E E E  E  Q.
|---------------------------|--------------------|
|---------------------------|--------------------|
|---------------------------|--------------------|
|---------7-(7)s9--------7--|-----7---------5----|
|-------7----------------7--|-----7---------5----|
|-5---------------5-5-5--5--|--5--5-5-5--5--3----|


  Bb5        C5         D5       A5         Bb5      F5 C5
  W          W          Q.   S S Q.   S S   Q.   S S Q  Q
|----------|----------|-------------------|----------------||
|----------|----------|-------------------|----------------||
|-5--------|-7--------|-9----x-x-4----x-x-|-5----x-x----7--||
|-5--------|-7--------|-9----x-x-4----x-x-|-5----x-x-5--7--||
|-3--------|-5--------|-7----x-x-2----x-x-|-3----x-x-5--5--||
|----------|----------|-------------------|----------3-----||
|
| W          W          Q.   S S Q.   S S   Q.   S S Q  Q
|----------|----------|-------------------|----------------||
|----------|----------|-------------------|----------------||
|-5--------|-7--------|-9----x-x-4----x-x-|-5----x-x----7--||
|-5--------|-7--------|-9----x-x-4----x-x-|-5----x-x-5--7--||
|-3--------|-5--------|-7----x-x-2----x-x-|-3----x-x-5--5--||
|----------|----------|-------------------|----------3-----||


 Guitar Solo
  N.C.(D)
   S  S  S  S  S  S  S  S  S  S  S  S  S  S  S  S
|-13-16----13-------------------------13-16----13s|
|-------15----15-15-12-15-------15-15-------15----|
|-------------------------13-16-------------------|
|-------------------------------------------------|
|-------------------------------------------------|
|-------------------------------------------------|
|
|  PM----------------------------------------------
|  S  S  S  S  S  S  S  S  S  S  S  S  S  S  S  S
|-------------------------------------------------|
|-------------------------------------------------|
|-------------------------------------------------|
|-------------------------------------------------|
|-------------------------------------------------|
|--0--0--0--0--0--0--0--0--0--0--0--0--0--0--0--0-|


                                             |---3---|
   S  S  S  S  S  S  S  S  S  S  S  S  S  S  S  S    S
|-16-19----16-------------------------16-19-------------|
|-------18----19-18----18-------18-18-------18-20s==21--|
|-------------------19----16-19-------------------------|
|-------------------------------------------------------|
|-------------------------------------------------------|
|-------------------------------------------------------|
|
|-------------------------------------------------|
|  S  S  S  S  S  S  S  S  S  S  S  S  S  S  S    S
|-------------------------------------------------------|
|-------------------------------------------------------|
|-------------------------------------------------------|
|-------------------------------------------------------|
|-------------------------------------------------------|
|--0--0--0--0--0--0--0--0--5--4--3--2--7--6--5----4-----|


   S  S  S  S  S  S  S  S  S  S  S  S  S  S  S  S
|-19-22----19-------------------17----19-22----17-|
|-------21----21-21-18-21----18----21-------21----|
|-------------------------19----------------------|
|-------------------------------------------------|
|-------------------------------------------------|
|-------------------------------------------------|
|
|  PM----------------------------------------------
|  S  S  S  S  S  S  S  S  S  S  S  S  S  S  S  S
|-------------------------------------------------|
|-------------------------------------------------|
|-------------------------------------------------|
|-------------------------------------------------|
|-------------------------------------------------|
|--0--0--0--0--0--0--0--0--0--0--0--0--0--0--0--0-|


                                                                     ~~~~~~~~~~
   |--------6---------|  |--------6---------|  |--------6---------|
   S  S    S  S  S    S  S  S    S  S  S    S  S  S    S  S  S    S  S     +E.
|-19p17p==16------------------------------------------------------------------------|
|------------18p17p==15-------------------------------------------------------------|
|-----------------------17p16p==14-13h14h==16-14p13---------------------------------|
|-----------------------------------------------------15p14p12------14b15r(14)------|
|----------------------------------------------------------------14-----------------|
|-----------------------------------------------------------------------------------|
|
|----------------------------------|
|  S    S     S    S     S    S     S    S     S    S     S    S     S      S  S S
|-----------------------------------------------------------------------------------|
|-----------------------------------------------------------------------------------|
|-----------------------------------------------------------------------------------|
|-----------------------------------------------------------------------------------|
|----------------------------------------0h====2h===3p====2p===0--------------------|
|--0----0-----0----0-----0----0-----0--------------------------------3------2--0-2--|


                               ~~~~~
   S   S   S   S   E          +Q.               S  S  S      +S
|----------------------------------------------------------------|
|-----------------15---------(15)--------------------15b17==(15)-|
|-----------------14b16======(14)r-------------12----------------|
|-------------------------------------------------14-------------|
|-(x)s(x)s(x)s(x)------------------------------------------------|
|----------------------------------------------------------------|
|
|  PM-------------------------------------------------------------
|  S  +S   S   S   S     +S    S   S S S S +S   S  S  S       S
|----------------------------------------------------------------|
|----------------------------------------------------------------|
|----------------------------------------------------------------|
|----------------------------------------------------------------|
|----------------------------------------------------------------|
|--0--(0)--0---0---0-----(0)---0---0-0-0-0-(0)--0--0--0-------0--|


                                                        ~~~~~~~~~~~
   +E       +E.          +E     +E     +S   +E         +E     +S    S
|---------------------------------------------------------------------|
|-(15)r====(15)b19======(15)---(15)r==(15)-(15)b17====(15)---(15)r-12-|
|---------------------------------------------------------------------|
|---------------------------------------------------------------------|
|---------------------------------------------------------------------|
|---------------------------------------------------------------------|
|
|------------------------------------------------------------------|
|   S  +S    S      S S   S  S  +S  S   S    S      S   S  S   S    S
|---------------------------------------------------------------------|
|---------------------------------------------------------------------|
|---------------------------------------------------------------------|
|---------------------------------------------------------------------|
|---------------------------------------------------------------------|
|---0--(0)---0------0-0---0--0--(0)-5---4----3------5---7--6---5----4-|


   S  S  S  S  S  S   S  S  S  S   S  S   S  S  S  S
|----------------------------------------------------|
|-15-14-12----14-12--------12------------------------|
|----------15--------15-14----15--14-12--15-14-12----|
|-------------------------------------------------14-|
|----------------------------------------------------|
|----------------------------------------------------|
|
|  PM-------------------------------------------------
|  S  S  S  S  S +S   S  S  S +S   S +S   S  S  S  S
|----------------------------------------------------|
|----------------------------------------------------|
|----------------------------------------------------|
|----------------------------------------------------|
|----------------------------------------------------|
|--0--0--0--0--0-(0)--0--0--0-(0)--0-(0)--0--0--0--0-|


   ~~~~~~~~~~~~~~~~~~~~~~~~~~~~~~~~~~~~~~~~~~~~~~~~~~~~~~~~~~~~~~~~~
   S     +S   +S      +S   +S      +S   +S      +S   +E         +E    +E      E
|---------------------------------------------------------------------------------||
|---------------------------------------------------------------------------------||
|-12b14r(12)-(12)b14r(12)-(12)b14r(12)-(12)b14r(12)-(12)b14====(12)--(12)r--------||
|---------------------------------------------------------------------------------||
|----------------------------------------------------------------------------12\--||
|---------------------------------------------------------------------------------||
|
|----------------------------------------------|
|  S      S    S      +S    S      +S    S       S    S      S   S S   S   S  S S
|---------------------------------------------------------------------------------||
|---------------------------------------------------------------------------------||
|---------------------------------------------------------------------------------||
|---------------------------------------------------------------------------------||
|-----------------------------------------------------2h=====3---0h2--------------||
|--0------0----0------(0)---0------(0)---0-------0---------------------3h==5--2h3-||


  Bb5                             C5
   PM------|                                ~~~~~~~~~~
                                   |--3--|
   E  E  E  E  E  E  S  S  S  S    E  E  E  H     +E  E
|-------------12-15-14h15p14-12-|-----------------------|
|----------13-------------------|-15--------------------|
|-------12----------------------|----14-12-11----(11)---|
|----14-------------------------|---------------------0-|
|-15----------------------------|-----------------------|
|-------------------------------|-----------------------|
|
|  W                               W
|-------------------------------|-----------------------|
|-------------------------------|-----------------------|
|--5----------------------------|--7--------------------|
|--5----------------------------|--7--------------------|
|--3----------------------------|--5--------------------|
|-------------------------------|-----------------------|


  N.C.(D)
             ~~~~~~~~~~~~~~~
   E        +Q         +E      S  S  S  S  S  S  S  S
|-15b17====(15)-------(15)r---17-19-15-17-19-18-17p15--|
|------------------------------------------------------|
|------------------------------------------------------|
|------------------------------------------------------|
|------------------------------------------------------|
|------------------------------------------------------|
|
|  PM-----------|       PM-------|         PM|
|  S     S   S  S S S   S   S  S  S  S  S  S  S  S  S
|------------------------------------------------------|
|------------------------------------------------------|
|------------------------------------------------------|
|-----------------4h5----------------4h=5--------4h=5--|
|-----------------5h7----------------5h=7--------5h=7--|
|--0-----0---0--0-------0---0--0--0--------0--0--------|


                        ~~~~~~~~~~~~~
   S  S  S  S  S  S  S  E        +Q         +S   E
|-17-15-------15-------------------------------------|
|-------17p15----15-17-15b17====(15)-------(15)r-----|
|----------------------------------------------------|
|------------------------------------------------9s==|
|----------------------------------------------------|
|----------------------------------------------------|
|
|  PM------|         PM--------------------------|
|  S  S  S  S  S  S  S  S     S   S  S S S   S   S S
|----------------------------------------------------|
|----------------------------------------------------|
|----------------------------------------------------|
|--------------4h=5----------------------------------|
|--------------5h=7----------------------5-----------|
|--0--0--0--0--------0--0-----0---0--0-0-----0---0-0-|


  Bb5
   |------6-------|  |------6-------|  |------6-------|  |------6-------|
   S  S  S  S  S  S  S  S  S  S  S  S  S  S  S  S  S  S  S  S  S  S  S  S
|-------------------------------------------------------------15-17h19h22-|
|----------------------------------------------15h17h19-17h19-------------|
|----------16h17h18----------16h18h19-16h18h19----------------------------|
|-16h17h19----------16h17h19----------------------------------------------|
|-------------------------------------------------------------------------|
|-------------------------------------------------------------------------|
|
|  W
|-------------------------------------------------------------------------|
|-------------------------------------------------------------------------|
|--5----------------------------------------------------------------------|
|--5----------------------------------------------------------------------|
|--3----------------------------------------------------------------------|
|-------------------------------------------------------------------------|


  C5
   |------6-------|  |-------6-------|   |------6-------|  |-------6--------|
   S  S  S  S  S  S  S  S  S  S  S  +S   S  S  S  S  S  S  S  S  +S   S  S  S
|-------17h19h20h22p20p19p17--------------------------------------------------|
|-19h20----------------------20p17-(17)h19-20p19-17---------------------------|
|---------------------------------------------------19-17-16s17-(17)-17-16-14-|
|-----------------------------------------------------------------------------|
|-----------------------------------------------------------------------------|
|-----------------------------------------------------------------------------|
|
|  W
|-----------------------------------------------------------------------------|
|-----------------------------------------------------------------------------|
|--7--------------------------------------------------------------------------|
|--7--------------------------------------------------------------------------|
|--5--------------------------------------------------------------------------|
|-----------------------------------------------------------------------------|


  D5                            A5
                                 ~~~~~~~~~~~~~~~~~~~~~~~~~~~~~~~~~~~~~~
   |------6-------|
   S  S  S  S  S  S  S  S  S  S  E.  +S      +S   +S      +S   +S
|----------------------------------------------------------------------|
|----------------------------------------------------------------------|
|----------------------------------------------------------------------|
|-17-16p14----14h17p14-------------------------------------------------|
|----------17----------17p15----14--(14)b17r(14)-(14)b17r(14)-(14)b17r=|
|----------------------------17----------------------------------------|
|
|  H                             H
|----------------------------------------------------------------------|
|----------------------------------------------------------------------|
|--9-----------------------------4-------------------------------------|
|--9-----------------------------4-------------------------------------|
|--7-----------------------------2-------------------------------------|
|----------------------------------------------------------------------|


  Bb5                                                 F5                C5
    ~~~~~~~~~~~~~~~~~~~~~~~~~~~~~~~~~~~~~~~~~~~~~~~~~~~~~~~~~~~~~~~~~~~~
   +S   +S      +S   +S      +S   +S      +S   +S      +S   +S      +E   +Q
|------------------------------------------------------------------------------||
|------------------------------------------------------------------------------||
|------------------------------------------------------------------------------||
|------------------------------------------------------------------------------||
|-(14)-(14)b17r(14)-(14)b17r(14)-(14)b17r(14)-(14)b17r(14)-(14)b17r(14)-(14)\--||
|------------------------------------------------------------------------------||
|
|   H                                                   Q                 Q
|------------------------------------------------------------------------------||
|------------------------------------------------------------------------------||
|---5---------------------------------------------------------------------7----||
|---5---------------------------------------------------5-----------------7----||
|---3---------------------------------------------------5-----------------5----||
|-------------------------------------------------------3----------------------||


 Re-Intro
  D5
    PM|     PM----|     PM|       PM----|     PM----|     PM|
  E S S S S S S S S S S S S S S   S S S S S S S S S S S S S S S S
|-------------------------------|---------------------------------|
|-------------------------------|---------------------------------|
|-------------------------------|---------------------------------|
|-------------------5h7---------|---------------------4h5-----5h7-|
|-2-----5h7-----------------5h7-|---------5h7---------------------|
|-0-0-0-----0-0-0-0-----0-0-----|-0-0-0-0-----0-0-0-0-----0-0-----|
|
| E H               E   E   E     W
|-------------------------------|---------------------------------|
|-------------------------------|---------------------------------|
|-------------------------------|---------------------------------|
|-2-----------------2-------2---|---------------------------------|
|-2-----------------2-------2---|---------------------------------|
|-0-----------------0-------0---|---------------------------------|


                                                  E5      F5      G5
    PM|     PM----|     PM|       PM----|     PM|
  E S S S S S S S S S S S S S S   S S S S S S S S  E  +S   E  +S   E
|-------------------------------|-------------------------------------||
|-------------------------------|-------------------------------------||
|-------------------------------|-------------------------------------||
|-------------------5h7---------|-----------------11-(11)-12-(12)-14--||
|-2-----5h7-----------------5h7-|---------5h7------9--(9)-10-(10)-12--||
|-0-0-0-----0-0-0-0-----0-0-----|-0-0-0-0-----0-0---------------------||
|
| E H               E   E   E     H                E  +S   E  +S   E
|-------------------------------|-------------------------------------||
|-------------------------------|-------------------------------------||
|-------------------------------|-------------------------------------||
|-2-----------------2-------2---|-----------------11-(11)-12-(12)-14--||
|-2-----------------2-------2---|------------------9--(9)-10-(10)-12--||
|-0-----------------0-------0---|-------------------------------------||


 Out-Chorus
  N.C.(D)
  Gtrs I, II
  PM----|     PM----|     PM|
  S S S S S S S S S S S S S S S S
|---------------------------------|
|---------------------------------|
|---------------------------------|
|---------------------5h7---------|
|---------5h7-----------------5h7-|
|-0-0-0-0-----0-0-0-0-----0-0-----|


  PM----|     PM----|     PM|       PM----|     PM----|     PM|
  S S S S S S S S S S S S S S S S   S S S S S S S S S S S S S S S S
|---------------------------------|---------------------------------|
|---------------------------------|---------------------------------|
|---------------------------------|---------------------------------|
|---------------------4h5-----5h7-|---------------------5h7---------|
|---------5h7---------------------|---------5h7-----------------5h7-|
|-0-0-0-0-----0-0-0-0-----0-0-----|-0-0-0-0-----0-0-0-0-----0-0-----|


                  E5      F5      G5   N.C.(Bb)
  PM----|     PM|                      PM----|     PM----|     PM|
  S S S S S S S S  E  +S   E  +S   E   S S S S S S S S S S S S S S S S
|------------------------------------|---------------------------------|
|------------------------------------|---------------------------------|
|------------------------------------|---------------------------------|
|-----------------11-(11)-12-(12)-14-|---------------------5h7---------|
|---------5h7------9--(9)-10-(10)-12-|-3-3-3-3-5h7-3-3-3-3-----3-3-5h7-|
|-0-0-0-0-----0-0--------------------|---------------------------------|


                                    N.C.(G)
  PM----|     PM----|     PM|       PM----|     PM----|     PM|
  S S S S S S S S S S S S S S S S   S S S S S S S S S S S S S S S S
|---------------------------------|---------------------------------|
|---------------------------------|---------------------------------|
|---------------------------------|---------------------------------|
|---------------------4h5-----5h7-|---------------------5h7---------|
|-3-3-3-3-5h7-3-3-3-3-----3-3-----|-0-0-0-0-5h7-0-0-0-0-----0-0-5h7-|
|---------------------------------|---------------------------------|


  F5   C5     (E5)
              PM----|   PM----|   PM|
  H    H      S S S S E S S S S E S S E
|-----------|---------------------------|
|-----------|---------------------------|
|------7----|---------------------------|
|-5----7----|---------------------------|
|-5----5----|---------4---------4-----4-|
|-3---------|-2-2-2-2-2-2-2-2-2-2-2-2-2-|


                    D5       (E5)
  PM----|   PM----|          PM----|   PM----|   PM|
  S S S S E S S S S E. S E   S S S S E S S S S E S S E
|--------------------------|----------------------------|
|--------------------------|----------------------------|
|--------------------------|----------------------------|
|--------------------------|----------------------------|
|---------4---------2----2-|---------4---------4-----4--|
|-2-2-2-2-2-2-2-2-2-0----0-|-2-2-2-2-2-2-2-2-2-2-2-2-2--|


                    D5       (C5)
  PM----|   PM----|          PM----|   PM----|   PM|
  S S S S E S S S S E. S E   S S S S E S S S S E S S E
|--------------------------|---------------------------|
|--------------------------|---------------------------|
|--------------------------|---------------------------|
|--------------------------|---------7---------7-----7-|
|---------4---------2----2-|-5-5-5-5-5-5-5-5-5-5-5-5-5-|
|-2-2-2-2-2-2-2-2-2-0----0-|---------------------------|


  PM----|   PM----|   PM|
  S S S S E S S S S E S S E
|----------------------------|
|----------------------------|
|----------------------------|
|---------7---------7-----7--|
|-5-5-5-5-5-5-5-5-5-5-5-5-5--|
|----------------------------|


  (A5)                        G5   D5     (E5)
  Gtr I
  PM----|   PM----|   PM|                 PM----|   PM----|   PM|
  S S S S E S S S S E S S E   H    H      S S S S E S S S S E S S E
|---------------------------|-----------|---------------------------*|
|---------------------------|-----------|---------------------------*|
|---------------------------|-----------|---------------------------*|
|---------4---------4-----4-|-2---------|---------------------------*|
|-2-2-2-2-2-2-2-2-2-2-2-2-2-|-0----2----|---------4---------4-----4-*|
|---------------------------|------0----|-2-2-2-2-2-2-2-2-2-2-2-2-2-*|
|
| Gtr II
| PM----|   PM----|   PM|
| S S S S E S S S S E S S E   H    H      E   H             E E   E
|---------------------------|-----------|---------------------------*|
|---------------------------|-----------|---------------------------*|
|---------------------------|-----------|---------------------------*|
|---------4---------4-----4-|-2---------|---------------------------*|
|-2-2-2-2-2-2-2-2-2-2-2-2-2-|-0----2----|-4-----------------4-----4-*|
|---------------------------|------0----|-2-----------------2-----2-*|



Duration Legend
---------------
W - whole; H - half; Q - quarter; E - 8th; S - 16th; T - 32nd; X - 64th; a - acciaccatura
+ - note tied to previous; . - note dotted; .. - note double dotted
Uncapitalized letters represent notes that are staccato (1/2 duration)
Irregular groupings are notated above the duration line
Duration letters will always appear directly above the note/fret number it represents the
duration for.  Duration letters with no fret number below them represent rests.  Multi-
bar rests are notated in the form Wxn, where n is the number of bars to rest for.  Low
melody durations appear below the staff

Tablature Legend
----------------
 h   - hammer-on
 p   - pull-off
 b   - bend
 pb  - pre-bend
 r   - bend release (if no number after the r, then release immediately)
 /\  - slide into or out of (from/to "nowhere")
 s   - legato slide
 S   - shift slide
 - natural harmonic
[n]  - artificial harmonic
n(n) - tapped harmonic
 ~   - vibrato
 tr  - trill
 T   - tap
 TP  - trem. picking
 PM  - palm muting
\n/  - tremolo bar dip; n = amount to dip
 \n  - tremolo bar down
 n/  - tremolo bar up
/n\  - tremolo bar inverted dip
 =   - hold bend; also acts as connecting device for hammers/pulls
  - volume swell (louder/softer)
 x   - on rhythm slash represents muted slash
 o   - on rhythm slash represents single note slash

Misc Legend
-----------
 |  - bar
||  - double bar
||o - repeat start
o|| - repeat end
*|  - double bar (ending)
 :  - bar (freetime)
 $  - Segno
 &  - Coda
Tempo markers -  = BPM(8/16=s8/s16), where s8 = swing 8ths, s16 = swing 16ths



Important: The song above is NOT stored on the Chordie server. The original song is hosted at www.guitaretab.com. Chordie works as a search engine and provides on-the-fly formatting. Chordie does not index songs against artists/composers will. To remove this song please click here.

This song is displayed as text-only. Transposing and tuning is only available for chordpro-songs.

Login - add to songbook

Rating click stars to rate

Layout
Accuracy

SHARE PAGE  




You need to log in to post comments