Guitar Tabs, Chords and Lyrics


Excuse Me Mr   Ben Harper



Tab by disketes (Ben Harper - Excuse me Mr)

It's everything near from the original!
Thks for try to play as i play :)

All Song...
(INTRO)
E|----------------------------------------|
B|------1-0-------------------------------|
G|-----2----2-0-2------2------------------|
D|----2---------------2-2-0--0-0-0-0h2----|
A|---0------------0-----------------------|
E|----------------------------------------|
                                       
 
E|-------------------|----------------------|
B|----1-0------1-----|----------------------|
G|---2----2-0-2-2----|---2------------------|
D|--2----------------|--2-2-0--0-0-3h5-3-2--|
A|----------------0--|----------------------|
E|-------------------|----------------------|
     

E|-------------------|-------------------|
B|------1-0----------|-------------------|
G|-----2----2-0-2----|-------------------|
D|----2--------------|-------------------|
A|---0---------------|-------------------|
E|-------------------|-------------------|

(VERSO)Same for all song!
 
E:-----------------------------------: 
B:-----1--1-1-1--1----1--1-1-1-------: 
G:-----2--0-0-0--0----0--2-2-2-------: 
D:-----------------------------------: 
A:-0-0-----3-3------------3-3--------: 
E:----------------3-3----------0h1p0-: 
                      *
(SOLO)*The Solo is given in the music after that part!
 
E:-----------------------------------: 
B:-----------------------------------:
G:-----------------------------------:
D:-----------------------------------:
A:-3p0-0h3-0h1/2-3/5-5p0-------------:
E:-----------------------------------:

(END)

E|-------------------|
B|------1-0----------|
G|-----2----2-0------|
D|----2---------2----|
A|---0---------------|
E|-------------------|



Important: The song above is NOT stored on the Chordie server. The original song is hosted at www.guitaretab.com. Chordie works as a search engine and provides on-the-fly formatting. Chordie does not index songs against artists/composers will. To remove this song please click here.

This song is displayed as text-only. Transposing and tuning is only available for chordpro-songs.

Login - add to songbook

Rating click stars to rate

Layout
Accuracy

SHARE PAGE  




You need to log in to post comments