Guitar Tabs, Chords and Lyrics


Incommunicado  Harvey Danger

e|-0--0---3--1--2--------3--5---3--5---|


B|-1--1---3--1--3--------5--5---3--7---|


G|-0--2---0--2--2--------5--5---4--7---|

D|-2--2---0--3--0--------5--7---5--7---|
A|-3--0---2--3--0--------3--7---5--5---|
E|-x--x---3--1--x--------x--5---3--x---|
e|--------------------------------------------------------------------|
B|--10\8--------------------------------------------------------------|
G|--10\9--------------------------------------------------------------|
D|--------------------------------------------------------------------|
A|--------------------------------------------------------------------|
E|--------------------------------------------------------------------|
e|----------------------------------------------|
B|-10-8-------8---------88-88-66-66-5-6---------|
G|------9-7-9---9~------99-99-77-77-5-7----9-~~-|
D|-----------------------------------------10~~-|
A|----------------------------------------------|
E|----------------------------------------------|
[C]I wish the words would fail [Am]me just for [G]once
(Just once)
[C]Keep in incommuni[Am]cado
[G](You don't say a word)
[C]Look for the present tense
[Am]And come to my [G]senses
(Come pick me up)
[C]Just like a desper[Am]a-a-a[G]do
(A-a-ado)

[F]I talked for twenty minutes
[F]By the time the party ended you'd [D]forgotten
[G]I'm still thinking ab[D]out it
F G~
Five years later

Pre-verse: C C Am G

[C]You spoke an unfamiliar [Am]dialect[G]
(Comme ca?)
[C]Two and a half months [Am]over [G]
(Over)
[C]Next thing I knew someone had [Am]called for the [G]check
(Check please)
[C]And you were gone before I [Am]turned it [G]over

[F]I dreamed we were alone all night
[F]In a house made out of beds
[D]And nothing happened

[G]I think about it [D]every time I [F]see you
[C]That's when I try to remember
[G]There were never any [D]terms we could ag[F]ree to  [C]
[F]Now can I please have a moment of your time?
[F](Can I please have a moment of your time?)
[F]For I have the strength to change my [G]mind.

Important: The song above is NOT stored on the Chordie server. The original song is hosted at www.guitaretab.com. Chordie works as a search engine and provides on-the-fly formatting. Chordie does not index songs against artists'/composers' will. To remove this song please click here.

Text color:
Chord color:
Chord grids: 
Font size:    
Page size: 

Am C D F G
variations - click chord images

Login - add to songbook

Transpose chords

Tuning

Rating click stars to rate

Layout
Accuracy

SHARE PAGE  




You need to log in to post comments