I Think Im A Mother

Pj Harvey



-----------------------------------------------   X3

-----------------3---0----- ---0--------------

--3---0---0--------------0----0-------------

-----------------------------------------------

-----------------------------------------------

-----------------------------------------------

(A) -------------------------------------------------------------- 

      ---0----0----3----0-------0-------0--0--0----3---0---0---

      ---0----0----3----0-------0-------0--0--0----3---0---0---

      --------------------------------------------------------------

      --------------------------------------------------------------

      --------------------------------------------------------------

(B) --(0)--(0)--(0)--(0)------------------------------------ 

      ---3----3----3----3--------0----0---3---0----0----0--

      ---3----3----3----3--------0----0---3---0----0----0--

      ----------------------------------------------------------

      ----------------------------------------------------------

      ----------------------------------------------------------

      --(0)--(0)--(0)--(0)----

      ---3----3----3----3-----

      ---3----3----3----3-----

      --------------------------

      --------------------------

      -------------------------- 

(C)  -------------------------------

       --0--0--0---3---0---0---0---

       --0--0--0---3---0---0---0---

       --------------------------------

       --------------------------------

       --------------------------------


 A
 You think you'll come over
I'll give you my number
 A
 You lover, supporter
Then give me a mother
 A
 You come take me home and
Take me to your doctor
 A
 You think you'll come over?
 A
 I think I'm a mother
(B), (A)
 A
 Roll over, roll over
And roll me a man-a
 A
 You lover, my lover
You just roll me over
 A
 You give me a mother
A man if I love her
 A
 I love her, I'll keep her
I better just keep her
(B), (C), (B), (A)
 A
 Come and support her
I said to the mother
 A
 She said you come over
She said she'd support her
 A
 I love her, I kept her
And then just left and
 A
 Alone I emplore ya
 A
 I think I'm a mother
 AAA
             --- Matt (iaovertigo@aol.com)
Lyrics courtesy of Fyreflea from the PJ Digest

A
variations - click chord images
Transpose chords:
Tuning:
Cool service:
View: Size:
A  A  A
Rating:
Layout:
  • Currently 3.6/5 Stars.
  • 1
  • 2
  • 3
  • 4
  • 5
 
Accuracy:
  • Currently 2.8/5 Stars.
  • 1
  • 2
  • 3
  • 4
  • 5
 
click stars to rate
Chordie recommends:
Check out JamPlay.com for online video guitar lessons
Songbook:
Login to add this song to your songbook
Support the artist
Preview/buy this song
MSN Music
Why this non-profit ad?

 
login to add comments/video/corrections