Guitar Tabs, Chords and Lyrics


Betrayed By Life   Hatebreed



HATEBREED RULES!

  "In a cold, unforgiving world..."
1||---------------|---------------||--------------|---------------|------||
2||---------------|---------------||--------------|---------------|------||
3||---------------|---------------||--------------|---------------|------||
4||---------------|---------------||--------------|---------------|------||
5||-3-------------|-6------2------||-3------------|-6------3------|-2----||
6||-1-------------|-4------0------||-1------------|-4------1------|-0----||

                                        "No one, is exempt..."
1||-----------------|-----------------||-----------------|-----------------||
2||-----------------|-----------------||-----------------|-----------------||
3||-----------------|-----------------||-----------------|-----------------||
4||-3---------------|-----------------||-----------------|---------3-------||
5||-1---2---5-4-2---|-5-4-2---5-4-2---||-3-2-------3---2-|-3-2---2-1-------||


Important: The song above is NOT stored on the Chordie server. The original song is hosted at www.guitaretab.com. Chordie works as a search engine and provides on-the-fly formatting. Chordie does not index songs against artists'/composers' will. To remove this song please click here.

This song is displayed as text-only. Transposing and tuning is only available for chordpro-songs.

Login - add to songbook

Rating click stars to rate

Layout
Accuracy

SHARE PAGE  




You need to log in to post comments