Guitar Tabs, Chords and Lyrics


Mark My Words   Hatebreed



  "I was so blind..."
1||-----------------|-----------------|-----------------|-----------------||
2||-----------------|-----------------|-----------------|-----------------||
3||-----------------|-----------------|-----------------|-----------------||
4||-9---------------|-7------10-------|-9---------------|-----------------||
5||-7---------------|-5-------8-------|-7---------------|-5-------7-------||
6||-----------------|-----------------|-----------------|-3-------5-------||

   Chorus "Consider my suffering..."                     *Slower ending last time
1||-----------------|----------------|------------------|-----------------||
2||-----------------|----------------|------------------|-----------------||
3||-----------------|----------------|------------------|-----------------||
4||-----------------|----------------|------------------|-----------------||
5||-2---------------|-5--------------|------------------|-8--7--5---------||
6||-0---------------|-3--------------|-0000000000000000-|-6--5--3---------||

   Slower Ending                Bass and Guitar lick "Mark My Words"
1||------------------|--------||-----------------|-----------------||
2||------------------|--------||-----------------|-----------------||
3||------------------|--------||-----------------|-----------------||
4||------------------|--------||-----------------|-----------------||
5||-8--7-----5---5---|-2------||-3---2---5---2---|-8---7---5---7---||


Important: The song above is NOT stored on the Chordie server. The original song is hosted at www.guitaretab.com. Chordie works as a search engine and provides on-the-fly formatting. Chordie does not index songs against artists'/composers' will. To remove this song please click here.

This song is displayed as text-only. Transposing and tuning is only available for chordpro-songs.

Login - add to songbook

Rating click stars to rate

Layout
Accuracy

SHARE PAGE  




You need to log in to post comments