Guitar Tabs, Chords and Lyrics


Driven By Suffering   Hatebreed



Driven by suffering
HATEBREED RULES!!!

Intro and verse
1||-----------------|------------------|----------------|------------------||
2||-----------------|------------------|----------------|------------------||
3||-----------------|------------------|----------------|------------------||
4||---------5--6--8-|-9----------------|-------------10-|-9----------------||
5||-8--7--8-3--4--6-|-7----------------|---------8-7--8-|-7----------------||
6||-6--5--6---------|---00000000000000-|-000000006-5----|---00000000000000-||

   "All of my life..."
1||-----------------|-----------------|-----------------|-----------------||
2||-----------------|-----------------|-----------------|-----------------||
3||-----------------|-----------------|-----------------|-----------------||
4||-2---------------|-2---------------|-2---------------|---------5--6--8-||
5||-2------2--2---2-|-2------2--2---2-|-2------2--2---2-|-8--7--8-3--4--6-||
6||-0------0--0---0-|-0------0--0---0-|-0------0--0---0-|-6--5--6---------||

   "Every single choice I must make..."
1||-----------------|-----------------|-----------------|-----------------||
2||-----------------|-----------------|-----------------|-----------------||
3||-----------------|-----------------|-----------------|-----------------||
4||-2---------------|-2---------------|-2---------------|---------5--6--8-||
5||-2------2--2-----|-2------2--2--2--|-2------2--2-----|-8--7--8-3--4--6-||
6||-0------0--0-----|-0------0--0--0--|-0------0--0-----|-6--5--6---------||

  Heavy bit
1||-----------------|-----------------|-----------------|-----------------|
2||-----------------|-----------------|-----------------|-----------------|
3||-----------------|-----------------|-----------------|-----------------|
4||-----------------|-----------------|-----------------|-----------------|
5||-3-3-2---3---2---|-3---4---3---2---|-3-3-2---3---2---|-3---8---7---4---|
6||-1-1-0---1---0---|-1---2---1---0---|-1-1-0---1---0---|-1---6---5---2---|

1||-----------------|-----------------|-----------------|-----------------||
2||-----------------|-----------------|-----------------|-----------------||
3||-----------------|-----------------|-----------------|-----------------||
4||-----------------|-----------------|-----------------|-----------------||
5||-3-3-2---3---2---|-3---4---3---2---|-3-3-2---3---2---|-3-3-8---7---4---||


Important: The song above is NOT stored on the Chordie server. The original song is hosted at www.guitaretab.com. Chordie works as a search engine and provides on-the-fly formatting. Chordie does not index songs against artists'/composers' will. To remove this song please click here.

This song is displayed as text-only. Transposing and tuning is only available for chordpro-songs.

Login - add to songbook

Rating click stars to rate

Layout
Accuracy

SHARE PAGE  




You need to log in to post comments