Guitar Tabs, Chords and Lyrics


Spitting Venom   Hatebreed



Hatebreed
Supramecy
Spitting Venom
Tabbed by Tias


Tuning: C,G,C,F,A,D

Intro:
                        1 time    2 time
D|--------------------|---------|-------|
A|--------------------|---------|-------|
F|--------------------|---------|-------| 2X
C|-0—-6~--0-6-0-6-0~--|-0-0-0-0-|--0--0-|
G|-0—-6~--0-6-0-6-0~--|-0-0-0-0-|--0--0-|
C|-0--6~--0-6-0-6-0~--|-0-0-0-0-|--0--0-|
                        . . . .    .  .

Verse:

D|------------------------------|---------------------|
A|------------------------------|---------------------|
F|------------------------------|---------------------| 2X
C|-3-7\6------------3---7\6-----|-8-7--11-10--8-7-----|
G|-3-7\6------------3---7\6-----|-8-7--11-10--8-7-----|
C|-3-7\6--0-0-0-0-0-3-0-7\6-0-0-|-8-7—-11-10--8-7—0-0-|
          . . . . .   .     . .                   . .

D|-------------------------|
A|-------------------------| 
F|-------------------------| A lot
C|-------------------------|
G|-0-0-0-1--0-0-1--0-0-0-0-|
C|-0-0-0-1--0-0-1--0-0-0-0-|
   . . . .  . . .  . . . . 

And then with a riff the other guitar does a open C 


Important: The song above is NOT stored on the Chordie server. The original song is hosted at www.guitaretab.com. Chordie works as a search engine and provides on-the-fly formatting. Chordie does not index songs against artists'/composers' will. To remove this song please click here.

This song is displayed as text-only. Transposing and tuning is only available for chordpro-songs.

Login - add to songbook

Rating click stars to rate

Layout
Accuracy

SHARE PAGE  




You need to log in to post comments