Chordie logo


Apparently   Hawthorne Heights



Artist:Hawthorne Heights 
Song:Apparently
Tabbed by DJ Scott
Tuning:standard
h=hammer on
x-palm mute

Intro:

e|-------------------------|
b|-------------------------|
g|-------------------------|x 4
d|----5-----2h3-2---3h5----|
a|------3---------3-----3--|
E|--5-----1----------------|

e|-----x-x-----|
b|-----x-x-----|
g|-5---x-x-----|x4
d|-5-3-x-x-7-5-|
a|-3-3-x-x-7-5-|
E|---1-x-x-5-3-|


e|----------------------------------------------------|
b|----------------------------------------------------|
g|-------------------------------55h7p-44h5p4-22h42-0-|
d|-5-5h7p5-3-3h5p3-3-2-2h3p2-2-0-55h7p-33h5p3-22h32-0-|
a|----------------------------------------------------|
E|----------------------------------------------------|


e|-----------------------------------------------------------|
b|-----------------------------------------------------------|
g|-----------------------------------------------------------|x2
d|-------5-----5-------5------5--------3-3-3-2-------0-0-0-2-|
a|---------------------------------------------3-3-3---------|
E|-5-5-5---5-5---5-5-5---5-5----1-1-1------------------------|


e|-----------------------------------|
b|-----------------------------------|
g|-5-7-5-4-2-0-0-0-5-7-4-5-5-2-------|
d|-5-5-5-5-2-0-0-2-5-5-5-5-7-2-------|
a|-----------------------------3-5-7-|
E|-----------------------------------|

e|----------------------------------------------------|
b|----------------------------------------------------|
g|-------------------------------55h7p-44h5p4-22h42-0-|
d|-5-5h7p5-3-3h5p3-3-2-2h3p2-2-0-55h7p-33h5p3-22h32-0-|
a|----------------------------------------------------|
E|----------------------------------------------------|


e|-----------------------------------------------|
b|-----------------------------------------------|
g|-5-7-5-5----5-7-5-5----------------5-5-5---5---|
d|-5--------5-5-------5-33-55-777-55-5-------5-5-|
a|----------------------33-55-777-55-------------|
E|----------------------11-33-555-33-------------|


e|----------------------------------|
b|----------------------------------|
g|--------------5-8-5-5---5-8-5-5---|
d|-33-55-777-55-5-------5-5-------5-|
a|-33-55-777-55---------------------|
E|-11-33-555-33---------------------|


e|----------------------------------------------|
b|----------------------------------------------|
g|-------------5-8-5-5---5-8-5-5----------------|
d|-33-55-777-8-5-------5-5-------5-33-33-777-55-|
a|-33-55-777-8---------------------33-33-777-55-|
E|-11-33-555-6---------------------11-55-555-33-|

bass comes in...................
then play this

e|----------------------------------------------------|
b|----------------------------------------------------|
g|-------------------------------55h7p-44h5p4-22h42-0-|
d|-5-5h7p5-3-3h5p3-3-2-2h3p2-2-0-55h7p-33h5p3-22h32-0-|
a|----------------------------------------------------|
E|----------------------------------------------------|


Outro:

Just play the begining again


e|-----x-x-----|
b|-----x-x-----|
g|-5---x-x-----|x4
d|-5-3-x-x-7-5-|
a|-3-3-x-x-7-5-|


Important: The song above is NOT stored on the Chordie server. The original song is hosted at www.guitaretab.com. Chordie works as a search engine and provides on-the-fly formatting. Chordie does not index songs against artists/composers will. To remove this song please click here.

This song is displayed as text-only. Transposing and tuning is only available for chordpro-songs.

Login - add to songbook

Rating click stars to rate

Layout
Accuracy

SHARE PAGE  




You need to log in to post comments