Guitar Tabs, Chords and Lyrics


Angels With Even Filthier Souls   Hawthorne Heights



Artist: Hawthorne Heights.
Song: Angels With Even Filthier Souls.
Album: Elektra soundtrack.
Tuning: Standard.
.= Palm Mute.
/= Slide.
X= Mute.
This is a great song. Have fun with it.

e-----------------|
B-----------------|
G-----------------|
D-2---------------|
A-0-0-0-0-0-0-0-0-|
E-----------------|
..................
e-----------------|
B-----------------|
G-----------------|
D-----------------|
A-2---------------|
E-0-0-0-0-0-0-0-0-|
..................
e-----------------|
B-----------------|
G-----------------|
D-----------------|
A-3---------------|
E-1-1-1-1-1-1-1-1-|
..................
e-------------------|
B-------------------|
G-------------------|
D-----------------5-|
A-5---------------5-|
E-3-3-3-3-3-3-3-3-3-|
..................
Bridge To Chorus:

e----------------------------------|
B----------------------------------|
G-2-2------------------------------|
D-2-2------------------------------|
A-0-0--7--2-2--8--3-3--10--5-5-----|
E---------0-0-----1-1------3-3-----|

Chorus:

e---------------------------------|
B---------------------------------|
G-5-5-5-5-5-5-5-5-7-7-7-7-7-7-7-7-|
D-5-5-5-5-5-5-5-5-7-7-7-7-7-7-7-7-|
A-3-3-3-3-3-3-3-3-5-5-5-5-5-5-5-5-|
E---------------------------------|

e---------------------------------|
B---------------------------------|
G---------------------------------|
D-3-3-X-X-3-3-X-X-3-3-X-X-5-5-5-5-|
A-3-3-X-X-3-3-X-X-3-3-X-X-5-5-5-5-|
E-1-1-X-X-1-1-X-X-1-1-X-X-3-3-3-3-|

Interlude:

e--------------------------|
B--------------------------|
G--------------------------|
D-7-7/5/7-7-X-X-X-3-3--5-5-|
A-7-7/5/7-7-X-X-X-3-3--5-5-|
E-5-5/3/5-5-X-X-X-1-1--3-3-|

e---------------------------|
B---------------------------|
G---------------------------|
D---------------------------|
A---------------------------|
E-5-5-5-5-3-3-5----1-1--3-3-|
............................

Bridge:

e----5----3----1----3-|
B---5----3----1----3--|
G--5----4----2----4---|
D-7----5----3----5----|
A---------------------|
E---------------------|

Now go back to the beginning. Then this:

e---------------------------------|
B---------------------------------|
G---------------------------------|
D-7-7-7-7-2-2-2-2-3-3-3-3-5-5-5-5-|
A-7-7-7-7-2-2-2-2-3-3-3-3-5-5-5-5-|
E-5-5-5-5-0-0-0-0-1-1-1-1-3-3-3-3-|

Then go back to the chorus.



Important: The song above is NOT stored on the Chordie server. The original song is hosted at www.guitaretab.com. Chordie works as a search engine and provides on-the-fly formatting. Chordie does not index songs against artists'/composers' will. To remove this song please click here.

This song is displayed as text-only. Transposing and tuning is only available for chordpro-songs.

Login - add to songbook

Rating click stars to rate

Layout
Accuracy

SHARE PAGE  




You need to log in to post comments