Guitar Tabs, Chords and Lyrics


Angels With Fither Souls   Hawthorne Heights



hi peeps there ain't any full tabs that are played the right way so here you go


I know that hawthorne heights have 3 guiatrests but i only here 2 i think JT and Casey 
the same thing + there's a wierd lead in the chorus i can't
figure out if any body knows it please put it in the commets thanx

Intro PT.1(CLEAN)
e--0~----------|--|
b--1~----------|--|can play w/ 1 or 2 guitars sounds cool w/ 2 guitars
g--2~--1~--2~--|--|
d--2~--2~--3~--|X1|
a--0~--2~--3~--|--|
e------0~--0~--|--|

Intro Pt.2(CLEAN)
e--0~----------------------------3---|
b--1~---1h3p1-------1h3p1------------|
g--2~-----------1~----------2~-------|
d--2~-----------2~----------3~-------|
a--0~-----------2~----------3~-------|
e---------------0~----------0~-------|


Verse guitar1

e----------------------------------------------------------------------|i
b----------------------------------------------------------------------|dont
g----------------------------------------------------------------------|know
d--2-2-2-2-2-2-2-2-----------------------------------------------------|how
a--0-0-0-0-0-0-0-0-2-2-2-2-2-2-2-2-3-3-3-3-3-3-3-3-5-5-5-5-5-5-5-5-----|many
e------------------0-0-0-0-0-0-0-0-1-1-1-1-1-1-1-1-3-3-3-3-3-3-3-3-----|times
                                                                      to
                                                                      repeat


Verse Guitar2

e---------------------|--|
b---------------------|--|the () meanthat the 2nd time don't play
g---9---7---4---(5)---|X2|
d---x---x---x---(x)---|--|
a---7---5---2---(3)---|--|
e---------------------|--|


Verse2 guitar1

e---------------------------|
b---------------------------|
g---2-2---------------------|
d---2-2---2-2---3-3---5-5---|
a---0-0---2-2---3-3---5-5---|
e---------0-0---1-1---3-3---|


Verse2 guitar2

e----------------------|
b----------------------|
g----------------------|
d---7vb---8vb---10vb---|
a----------------------|
e----------------------|


Chorus guitar1&2

e-----------------------------------------------------------------|
b-----------------------------------------------------------------|
g---5-5-5-5-5-5-5-5-7-7-7-7-7-7-7-7-------------------------------|
d---5-5-5-5-5-5-5-5-7-7-7-7-7-7-7-7-3-3-xx-3-3-xx-3-3-xx-5-5-5-5--|
a---3-3-3-3-3-3-3-3-5-5-5-5-5-5-5-5-3-3-xx-3-3-xx-3-3-xx-5-5-5-5--|
e-----------------------------------1-1-xx-1-1-xx-1-1-xx-3-3-3-3--|


Breakdown guitar1

e--------------------------|
b--------------------------|
g--------------------------|
d--7-7/5/7-x-x-x-3-3-5-5---|
a--7-7/5/7-x-x-x-3-3-5-5---|
e--5-5/3/5-x-x-x-1-1-3-3---|


Breakdown guitar2

e-----------2h3p2---|
b---2h3p2-----------|
g-------------------|
d-------------------|
a-------------------|
e-------------------|


Repeat Intro1
and Intro2

Repeat Verse1&2 on both guitars

Repeat Chorus on both guitars



Important: The song above is NOT stored on the Chordie server. The original song is hosted at www.guitaretab.com. Chordie works as a search engine and provides on-the-fly formatting. Chordie does not index songs against artists'/composers' will. To remove this song please click here.

This song is displayed as text-only. Transposing and tuning is only available for chordpro-songs.

Login - add to songbook

Rating click stars to rate

Layout
Accuracy

SHARE PAGE  




You need to log in to post comments