Chordie logo


Nicki Fm   Hawthorne Heights



Nicki Fm

tuning: drop D

guitar 1-distortion
guitar 2-light distortion

Intro

e|-------------------------|
b|-------------------------|
g|--9---11---13---9---11---|
d|--9---11---13---9---11---| x2
a|--7---9----11---7---9----|
D|-------------------------|

guitar 2                         (both guitars)
|--------------------------      |-----------|
|--------------------------      |-----------|
|--------------------------      |-----------|
|--2---4---6---2---4------- x2   |--11-2-7---|
|--------------------------      |--11-2-7---|
|--------------------------      |--11-2-7---|

Riff 1
(guitar 1)     (guitar 2)      (guitar 1)     (guitar 2)
|-------------------0-------------------------------0-----------
|-----------------4---4---------------------------4---4---------    
|---------------4-------4-----------------------4-------4-------   
|--11-11--11-11---------------x2---7-7--7-7-------------------x2 (x3)  
|--11-11--11-11--------------------7-7--7-7---------------------
|--11-11--11-11--------------------7-7--7-7---------------------
   .. ..  .. ..                    . .  . .
Prechorus (guitar 2- listen for when to come in)
|--------8---|
|---------8--|
|-----8----8-|
|--/9--------|
|------------|
|------------|

Chorus (both)
|---------------------------------------------------------|
|---------------------------------------------------------|
|---------------------------------------------------------|
|-11--2--7----11-11-11-11--11-11-11-11--11\9---7--9--7--9-|
|-11--2--7----11-11-11-11--11-11-11-11--11\9---7--9--7--9-|
|-11--2--7----11-11-11-11--11-11-11-11--11\9---7--9--7--9-|

Riff 1 x2

(guitar 1)     (guitar 2)      (guitar 1)     (guitar 2)
|--------------------0------------------------------------------|
|------------------4---4----------------------------------------|
|----------------4-------4--------------------------------------|
|--11-11--11-11---------------x2---7-7---------7-7--------------|
|--11-11--11-11--------------------7-7---------7-7--------------|
|--11-11--11-11--------------------7-7---------7-7--------------|
   .. ..  .. ..                    . .         . .

Riff 1 x1

Prechorus (listen for when to come in)
|--------8-------------------------|
|---------8------------------------|
|-----8----8-----------------------|
|--/9------------------------------|
|----------------------------------|
|--------------9--11--12---5--7--9-|

chorus x2

Bridge
(guitar 1)
|----------------------------------------------------|
|----------------------------------------------------|
|----------------------------------------------------|
|----------------------------------------------------| x2
|--44444444--666666666--77777777---------------------|
|--------------------------------77777777--99999999--|

(both)
|--------------------|
|--------------------|
|--------------------|
|--6---8---9---------| x2
|--4---6---7--7---9--|
|-------------7---9--|

(guitar 1)
|------------------------------------------------|
|------------------------------------------------|
|------------------------------------------------|
|------------------------------------------------| x4
|-11-11-xx-0--11-11-xx-9-9-xx-7-7-xx-0-9-9-xx-0--|
|-11-11-xx-0--11-11-xx-9-9-xx-7-7-xx-0-9-9-xx-0--|

(guitar 2)- comes in on 3rd time
|--12--12--11--12--7--7-------------------|
|-----------------------------------------|
|----9---9---9---9--6--6------8---9---8---|
|-----9---9---9---9--9--9--/9---9---9-----| x5
|-----------------------------------------|
|-----------------------------------------|

(guitar 1)-comes in on 3rd time
|----------------------|
|----------------------|
|----------------------|
|-6~--7~--9~--6~---7~--| x2
|----------------------|
|----------------------|

outro
|------|
|------|
|------|
|--7---|
|--9---|
|--9---|

key
~ =vibrato
/ =slide up
\ =slide down
.. =palm



Important: The song above is NOT stored on the Chordie server. The original song is hosted at www.guitaretab.com. Chordie works as a search engine and provides on-the-fly formatting. Chordie does not index songs against artists/composers will. To remove this song please click here.

This song is displayed as text-only. Transposing and tuning is only available for chordpro-songs.

Login - add to songbook

Rating click stars to rate

Layout
Accuracy

SHARE PAGE  




You need to log in to post comments