Guitar Tabs, Chords and Lyrics


Judy   Headstones



verse riff
e:-----------------:-----------------:
b:-----------------:-----------------:
g:-2---------------:-------7---7-7-7-:
d:-2---x-2---2-2-2-:-5---x-7---7-7-7-:
a:-0---x-2---2-2-2-:-5---x-5---5-5-5-:
e:-------0---0-0-0-:-3---------------:

chorus riff
e:-----------------:-----------------:-----------------:-----------------:
b:o----------------:----------------o:-----------------:-----------------:
g:-3---------------:-------7---7-7-7-:-3---------------:-----------------:
d:-3---x-3---3-3-3-:-5---x-7---7-7-7-:-3---x-3---3-3-3-:-2-2-2-2-5-5-5-5-:
a:o1---x-3---3-3-3-:-5---x-5---5-5-5o:-1---x-3---3-3-3-:-2-2-2-2-5-5-5-5-:
e:-------1---1-1-1-:-3---------------:-------1---1-1-1-:-0-0-0-0-3-3-3-3-:
                                   3x
bridge riff
e:-----------------:-----------------:
b:-----------------:-----------------:
g:-3-3-------------:-6-6-----8-8-----:
d:-3-3-------------:-6-6-----8-8-----:
a:-1-1-------------:-4-4-----6-6-----:
e:-----------------:-----------------:

organ lead
e:------8-7---------:-----7------------:
b:-10-----------8-8-:-------10-----8---:
g:----9-------9-----:---9------------9-:
d:------------------:------------------:
a:------------------:------------------:
e:------------------:------------------:


Important: The song above is NOT stored on the Chordie server. The original song is hosted at www.guitaretab.com. Chordie works as a search engine and provides on-the-fly formatting. Chordie does not index songs against artists'/composers' will. To remove this song please click here.

This song is displayed as text-only. Transposing and tuning is only available for chordpro-songs.

Login - add to songbook

Rating click stars to rate

Layout
Accuracy

SHARE PAGE  




You need to log in to post comments