Chordie logo

Reno   Headstones



Tabbed By : derb
e-mail:

Tuning:stantard
intro
G|-----------------------------------------------------------------------------|
D|-----------------------------------------------------------------------------|
A|-----------------------------------------------------------------------------|
E|-0-2-2-0-2-2-0-2-2-0-2-0-5-0--0-2-2-0-2-2-0-2-2-0-2-3-3----------------------|

singing starts
G|-----------------------------------------------------------------------------|
D|-----------------------------------------------------------------------------|
A|-----------------------------------------------------------------------------|
E|-0-2-0-2-0-2-0-2-0-3/5-0-----------------------------------------------------|
some times this is slid somtimes its bent to a play with what u think is best also 
it is only bent to g# the intro and this are the jist of the song.

chorus im not sure if tabed the timing right but the notes are there.
play 4 times
G|-----------------------------------------------------------------------------|
D|-----------------------------------------------------------------------------|
A|-9-9-9-7-7-7-5--4-4-4-2-2-0--7-7-7-5--5-7---7-7-7-5--5-7---------------------|
E|-----------------------------------------------------------------------------|
other riffs
G|-----------------------------------------------------------------------------|
D|-----------------------------------------------------------------------------|
A|-4-4-4-4-4-4-4-4-4-4-4-2-0-0-2-2-2-2-2-2-2-2-2-2-2-0-0-2-4-------------------|
E|-----------------------------------------------------------------------------|

G|-----------------------------------------------------------------------------|
D|-----------------------------------------------------------------------------|
A|-3-3-3-3-3-3-3-3-------------------5-5-5-5-5-5-5-5---------------------------|
E|-----------------3-3-3-3-3-3-3-3-------------------5-5-5-5-5-5-5-5-----------|

G|-----------------------------------------------------------------------------|
D|-----------------------------------------------------------------------------|
A|3-3-3-3-3-3-3-3-3-3-3-3-3-3-3-3----------------------------------------------|
E|-----------------------------------------------------------------------------|
this should be close jimbo
G|---------------------------------------------------------------------------|
D|---------------------------------------------------------------------------|
A|---------------------------------------------------------------------------|
E|---------------------------------------------------------------------------|


| /  slide up
| \  slide down
| h  hammer-on
| p  pull-off
| ~  vibrato
| +  harmonic
| x  Mute note


Important: The song above is NOT stored on the Chordie server. The original song is hosted at www.guitaretab.com. Chordie works as a search engine and provides on-the-fly formatting. Chordie does not index songs against artists/composers will. To remove this song please click here.

This song is displayed as text-only. Transposing and tuning is only available for chordpro-songs.

Login - add to songbook

Rating click stars to rate

Layout
Accuracy

SHARE PAGE  

You need to log in to post comments