Chordie logo

Waiting To Die   Hed Pe



                                WAITING TO DIE
                                  (hed)p.e.

album : Broke
transcibed by Chizz ice.cub@centrum.cz

 This is the way how (hed)p.e. played it in Rock Am Ring 2001 and Boardercross Festival 
videos, so fretting is like in HAS to be!! NO droped B tunning (B,F#,B ...!!!) Only song 
know is in B,F#,B ... tunning is Blackout!

Equipment:
Wesstyle - Ibanez RG550 series, DiMarzio pickups
Chizard  - Fender Stratocaster, maple fretboard, humbucker in bridge pisition
both     - Marshall JMC 800 heads, than switched to Marshall JMC Slash, Marshall cabs 
with Vintage 30 speakers

  TUNNING: B,E,A,D,F#,B


  Intro: Dj Product1969 -  sample arranged for guitar

  * vinyl sample with beats
    3x                             1x
B :-----------------------------|------------------------------|
F#:--------------------------8--|------------------------------|
D :---------7-7------6--5-------|---------7-7------6--5--------|
A :----5-5-------8--------------|----5-5-------8---------8-----|
E :-----------------------------|------------------------------|
B :-----------------------------|------------------------------|

  Verse: Wesstyle starts, Chizard starts after 4 times

  *crunch guitar
   8x
B :---------------------------|
F#:---------------------------|
D :---------------------------|
A :------------------------5--|
E :------5-5-------4-4--3-----|
B :-3-3-------6-6-------------|

  Pre-chorus:

  *Distorted
    live version                    record version

    4x
B :--------------------------------|---------------|
F#:--------------------------------|---------------|
D :-----x6-------------------------|---------------|
A :---8-x6-x7----------------------|---8x/11x\x7---|
E :---8-x4-x7----------------------|---8x/11x\x7---|
B :---6----x5----------------------|---6x/9-x\x5---|

   Chorus:
   *Distorted
   Chizard                       Wesstyle

    4x
B :----------------------------|----------------------------|
F#:----------------------------|----------------------------|
D :--------6---6--------5------|--------5--x6--------5------|
A :---5-x--5---6--8-----5---5--|---5-x--5--x6--8-----5---5--|
E :---5-x--4---5--8--x--4---5--|---5-x--4--x5--8--x--4--x5--|
B :---3-----------6--x------4--|---3-x---------6--x-----x4--|

   Breakdown:

  Wessstyle                             Chizard

 *whammy pedal octave up+neck pickup    *distorted guitar
  +palm vibrato on Floyd Rose tremolo

    1x Wes alone then ...               3x with Chizard
B :------------------------------------|---------------------------------|
F#:--------14~-15~-----14~-------------|---------------------------------|
D :---12~----------15~----13~----------|-------------------------------6-|
A :------------------------------------|---------5-------5-------5-----5-|
E :------------------------------------|-------------------------------4-|
B :------------------------------------|-3--3-3----3-3-3---3-3-3---3-0---|

  Bridge:

  Wesstyle 2x Chizard continues 2x together

  *crunch guitar

B :------------------------------------|
F#:------------------------------------|
D :------------------------------------|
A :------------------------------------|
E :------4-4-5-5-----4-4-----3-3-------|
B :--3-3---------6-6-----5-5-----4-4---|
 P.M.- - - - - - - - - - - - - - - -

Wesstyle                              Chizard


 *Distorted                           *Distorted
    4x
B :-----------------------------------|---------------------------|
F#:-----------------------------------|---------------------------|
D :-----------------------------------|-----6--7-----6-----5------|
A :-----------------------------------|--5--6--7--8--6--7--5--6---|
E :------4-4-5-5-----4-4-----3-3------|--5--4--5--8--4--7--3--6---|
B :--3-3---------6-6-----5-5-----4-4--|--3--------6-----5-----4---|

Outro:

Wesstyle and Chizard                  third studio guitar (wesstyle)

*Distorted                           * crunch guitar+neck pickup
   4x                                 2x
B :---------------------------------|-------------------------------|
F#:---------------------------------|--------15\14~-----------------|
D :-------------------------------6-|----12~------------------------|
A :---------5-------5-------5-----5-|-------------------------------|
E :-------------------------------4-|-------------------------------|
B :-3--3-3----3-3-3---3-3-3---3-0---|-------------------------------|


B :-----------|-------------------------------------------------------|
F#:-----------|-------------------------------------------------------|
D :6~---------|--------------------------6~~--------------------------|
A :5~---------|-2------------------------5~~-------------------2------|
E :4~---------|-2------------------------4~~-------------------2------|
B :---x-xx-xx-|-0--xxxxx-x-xxx--xx-xxx\-------xxxx-x-x-x-xxx\--0------|


Important: The song above is NOT stored on the Chordie server. The original song is hosted at www.guitaretab.com. Chordie works as a search engine and provides on-the-fly formatting. Chordie does not index songs against artists/composers will. To remove this song please click here.

This song is displayed as text-only. Transposing and tuning is only available for chordpro-songs.

Login - add to songbook

Rating click stars to rate

Layout
Accuracy

SHARE PAGE  

You need to log in to post comments