Guitar Tabs, Chords and Lyrics


Ma Vie Tient En Deux Mots  Helene Segara

----------------------------------------------------------------------------



----------------------------------------------------------------------------

[Dm]       [Gm]         [Dm]       [Bb]         [Gm]         [A7]   [Dm]       [A7]                                            
|-5---5--5---3----1---1--1---0----------------------------|
|----3------3--------3------------3---3--3-2--3---3-3-2---|
|---2------3---3----2----------------3-----------2--------|
|-0---------------0--------3---3----3----2----0-0---2-----|
|------------------------1---------------0----------0-----|
|--------3------------------------3-----------------------|

VERSE1
[Dm]De toute évi[Gm]dence
[Dm]Il est des ab[Bb]sences
Qu[A7]i refusent d'éteindre leurs feux

[Dm]A chacun sa [Gm]route
[Dm]  La tienne a sans [Bb]doute
[Gm]  Fait de toi [A7sus4]un homm[A7]e heu[Dm]reux

BRIDGE
[Gm]  Tu veux sa[C]voir où j'en suis [F]depuis tout ce [Bb]temps
Il n'y aurait[Gm/D] pas de quoi en [A7]faire un roman

CHORUS
Ma [Gm]vie tient en deux [A7]mots seu[Dm]lement [Bb]
Et [Gm]mon coeur te les [A7]dit s[Dm]ouvent [Bb]
Ma [Gm]vie tient en deux [A7]mots à [Bb]peine [Am7]
[Gm]     [A7sus4]        [A7]  Je [Dm]t'aime

(2x Dm Gm)

VERSE2 (chords as above)
Tes regards me disent
Que ce qui m'arrive
Ne t'arrivera jamais

Tes silences même
A eux seuls m'apprennent
Que pour nous les jeux sont faits

BRIDGE (chords as above)
Moi tu sais j'ai bien peu de chose à t'apprendre
Tu souris toujours en photo dans ma chambre

CHORUS (x2, chords as above)
Ma vie tient en deux mots seulement
Et mon coeur te les dit souvent
Ma vie tient en deux mots à peine
Je t'aime

Ma vie tient en deux mots, toujours
Jamais je n'en ferai le tour
Ma vie tient en deux mots à peine
Je t'aime.

Important: The song above is NOT stored on the Chordie server. The original song is hosted at www.guitaretab.com. Chordie works as a search engine and provides on-the-fly formatting. Chordie does not index songs against artists'/composers' will. To remove this song please click here.

Text color:
Chord color:
Chord grids: 
Font size:    
Page size: 

A7 A7sus4 Am7 Bb C Dm F Gm Gm/D
variations - click chord images

Login - add to songbook

Transpose chords

Tuning

Rating click stars to rate

Layout
Accuracy

SHARE PAGE  




You need to log in to post comments