Guitar Tabs, Chords and Lyrics


Gorgar   Helloween



Helloween   : Gorgar !
from album  :'Walls Of Jericho'
written by Michael Weikath/Kai Hansen
tablature by: Vermin

	        	* NOTE: *

i'm written this from memory and
this is my first helloween tab, so
some parts are complete wrong, but they sounds right...
In my personal opinion, this transcription is approx. 50-?0accurate.

any comments,questions, pleasures, tabulatures to: VERMIN@DLC.FI

part1
e:---------------------------------------------------|
B:---------------------------------------------------| guitar 1 on
G:---------------------------------------------------| beginning...
D:--------------5-----------------------5------------|
A:--3-----------4-----------3-----------4------------|
E:--2-----------------------2------------------------|
part2
e:--------------234234234234------------234234234-----(fast)-----|
B:--234234234234------------234234234234-------------------------|  
G:---------------------------------------------------------------| solo in
D:---------------------------------------------------------------| backround...
A:---------------------------------------------------------------| 
E:---------------------------------------------------------------|  
part3
e:-------------------------------------|---------|---------------| ***
B:-------------------------------------|----7~---|---------------| main riff,
G:-------------------------------------|---------|---------------| played
D:-------------------------------------|---------|---------------| through the song...
A:-3-5-3-5--3-3-3---3-5-3-5--3-3-3-----|---------|---------------|
E:-3-5-3-5--3-3-3---3-5-3-5--3-3-3-----|---------|---------------| ***
part4
e:------------------------------------------| comes after main riff is
B:------------------------------------------| played, and just before
G:------------------------------------------| part "binball speaks to..."
D:--6-5-4-3---------------------------------| 
A:----------6-5-4-3-------------------------|
E:------------------------------------------|
part5
e:----------------------------------------------------------------------|
B:----------------------------------------------------------------------| ...before
G:(quite fast)----------------------------------------------------------| chorus...
D:----------------------------------------------------------------------|
A:-3-3-5---------5-5-0--------------------------------------------------|
E:-1-1-3---------3-3-0--------------------------------------------------|
    a binnball    speaks to you...
part6                                    
e:------------------------------------|---------------
B:------------------------------------|---------------
G:------------------------------------|--------------- go on!
D:-5-5-------7-7-------6-5------------|---------------
A:-5-5-------7-7-------6-5------------|---------------
E:-5-5-------7-7-------6-5------------|-22234333------ A:---------------------------------------------------| not listed. sorry.
E:---------------------------------------------------|
part8
e:----------------------------------------------------|
B:---------9-7-0-12-13-(12,11,10,9,8,7,6,5~,very fast)| solo 1,
G:-5-6-7-8--------------------------------------------| continue...
D:----------------------------------------------------|
A:----------------------------------------------------|
E:----------------------------------------------------|

repeat main riff (chorus)

Order:

part1 + part2 
part3 (repeat about 5 times...)
part3 + part4 slowly in backround...
part4 (one's only)
part5 
part3 + part4 slowly in backround...
part4
part5
part3 
part6   (few times...)
part6a  (few times...)
part7
part8
part7
part8
part3 (couple times)
part3 + part4 slowly in backround.



Important: The song above is NOT stored on the Chordie server. The original song is hosted at www.guitaretab.com. Chordie works as a search engine and provides on-the-fly formatting. Chordie does not index songs against artists'/composers' will. To remove this song please click here.

This song is displayed as text-only. Transposing and tuning is only available for chordpro-songs.

Login - add to songbook

Rating click stars to rate

Layout
Accuracy

SHARE PAGE  




You need to log in to post comments