Guitar Tabs, Chords and Lyrics


Pink Bubbles Go Ape  Helloween



Words and Music by Michael Kiske
Arranged by John Bonham

Gtr I (E A D G B E) - 'Guitar'

Intro Verse
Q=85
[4/4] Gtr I
  [E]  [E]  [E]  [E]  [E]  [E]  [E]  [E]    [E]  [E]  [E]  [E]  [E]  [E]  [E]  [E]                                                                  
|-----------------|-----------------|
|-----------------|-----------------|
|---9---9---9---9-|---9---9---9---9-|
|---9---9---9---9-|---9---9---9---9-|
|-7-------7-------|-7-------7-------|
|-----7-------7---|-----7-------7---|



  [B]E E E E E E E E   [E5/B]E E E E E E E E   [B]E E E E [E5]E E Q
|-----------------|-----------------|----------------|
|-----------------|-----------------|----------------|
|---8---8---8---8-|---9---9---9---9-|---8---8---9-9--|
|---9---9---9---9-|---9---9---9---9-|---9---9---9-9--|
|-9-------9-------|-7-------7-------|-9-------7------|
|-----7-------7---|-----7-------7---|-----7----------|



  H    H      H    H     [3/4] +Q   +S  S E E E
|-----------|-----------|------------------|
|-----------|-----------|------------------|
|-4----4----|-3----4----|-(4)--(4)---------|
|-4----4----|-4----4----|-(4)--(4)---------|
|-2----2----|-4----2----|-(2)--(2)-2-------|
|-----------|-2---------|------------5-4-2-|



[4/4] E E Q  E E E E   E E E E E E E E   H    H      Q   Q  H
|----------------|-----------------|-----------|-------------*|
|----------------|-----------------|-----------|----!0-------*|
|---9-9----------|-----------------|-4---------|----!1-------*|
|---9-9----9-9-9-|---7-7-7---4-4-4-|-4---------|----!2-------*|
|-7-7-7----9-9-9-|---7-7-7---4-4-4-|-2---------|----!2-------*|
|--------7-7-7-7-|-5-5-5-5-2-2-2-2-|-----------|-------------*|



Duration Legend
---------------
W - whole; H - half; Q - quarter; E - 8th; S - 16th; T - 32nd; X - 64th; a - acciaccatura

+ - note tied to previous; . - note dotted; .. - note double dotted
Uncapitalized letters represent notes that are staccato (1/2 duration)
Irregular groupings are notated above the duration line
Duration letters will always appear directly above the note/fret number it represents the
duration for. Duration letters with no fret number below them represent rests. Multi-
bar rests are notated in the form Wxn, where n is the number of bars to rest for. Low
melody durations appear below the staff

Tablature Legend
----------------

h - hammer-on
p - pull-off
b - bend
pb - pre-bend
r - bend release (if no number after the r, then release immediately)
/\ - slide into or out of (from/to "nowhere")
s - legato slide
S - shift slide
- natural harmonic
(n) - artificial harmonic
n(n) - tapped harmonic
~ - vibrato
tr - trill
T - tap
TP - trem. picking
PM - palm muting
\n/ - tremolo bar dip; n = amount to dip
\n - tremolo bar down
n/ - tremolo bar up
/n\ - tremolo bar inverted dip
= - hold bend; also acts as connecting device for hammers/pulls
<> - volume swell (louder/softer)
x - on rhythm slash represents muted slash
o - on rhythm slash represents single note slash

Misc Legend
-----------

| - bar
|| - double bar
||o - repeat start
o|| - repeat end
*| - double bar (ending)
: - bar (freetime)
$ - Segno
& - Coda
Tempo markers - = BPM(8/16=s8/s16), where s8 = swing 8ths, s16 = swing 16ths

Important: The song above is NOT stored on the Chordie server. The original song is hosted at www.guitaretab.com. Chordie works as a search engine and provides on-the-fly formatting. Chordie does not index songs against artists'/composers' will. To remove this song please click here.

Text color:
Chord color:
Chord grids: 
Font size:    
Page size: 

B E E5 E5/B
variations - click chord images

Login - add to songbook

Transpose chords

Tuning

Rating click stars to rate

Layout
Accuracy

SHARE PAGE  




You need to log in to post comments