eToCache5 = ""; ?> by Unknown - guitar chords, guitar tabs and lyrics - chordie

Izabella
(Uni-Vibe & Fuzz Face throughout) Intro: 4x -||---------------------||-------------------||--------- -||-10--------10-10--10-||---12--10(11)------||--------- -||-11--------10-10--11-||---12--10(11)------||--------- -||-12--------10-10--12-||---12--------12-10-||---3-4-5- -||---------------------||-------------------||-5------- -||----10--13-----------||-10----------------||---------
Verse:
------------------------------------------------ ------------------------------------------------ -----------3(4)--------------------------------- -5p3h5p3h5------5p3h5-----5--5p3---5p3----5p3--- ---------------------------------5-----5------5- ----------------------3-------------------------
--------------------------------------------------------- --------------8(9)--------------------------------------- --------------8(9)--------------------------------------- -10p8h10p8h10------10p8h10----10-10p8----10p8----10p8---- --------------------------------------10------10------10- ---------------------------8-----------------------------
---------------------------------- ---------------------------------- -10-10-10-10-10----10-10-10-10-10- ---------------------------------- --8--8--8--8--8-----8--8--8--8--8- ----------------------------------
------------------ ------------------ ------------------ ---2-3-4---------- -3--------3------- ------------0-1-2-
Verse chords: G#9 C#9 F -------------- -11---4------- -10---3---10-- --9---2------- -10---3----8-- --------------
Bridge: ------------------------------------------ ------------------------------------------ ------------------------------------------ -------3--5p3h5p3-----------3-3p2h3p2h3p2- ---2-5------------5-----2-5--------------- -3--------------------3-------------------
---------------------------------------------- ---------------------------------------------- ---------------------------------------------- --------8-10p8h10p8-------------8-8p7h8p7h8p7- ---7-10-------------10-----7-10--------------- -8-----------------------8--------------------
------------------------------------------ ------------------------------------------ ------------------------------------------ ----------15-17p15h17p15--------------15~- ----14-17----------------17-----14-17----- -15--------------------------15-----------
------------------------------------------------------ ------------------------------------------------------ ------------------------------------------------------ ----------13-15p13h15p13h15p13---------8-10p8h10p8---- ----12-15-------------------------7-10-------------10- -13-----------------------------8---------------------
-------------------------- --------6~------6------6~- ----4-7-----4-7----4-7---- --5----------------------- -------------------------- --------------------------
solo: ----------------------------------------- -8(10)-(10)8p6-8(10)-8(10)~--8(10)8------ ------------------------------------7---- --------------------------------------8~- ----------------------------------------- -----------------------------------------
-------------------------------------------------- ---0------6-8-8(10)-8(10)~~~~~~~-8(10)8-6--------- ---0----7---------------------------------7-5-3~~- -5------------------------------------------------
-------------------------------------------------- --------------------------------------------------
------------------------------------------------------- ------------------------------------------------------- -3-5(7)5---3~---------3~----------------------5(7)~~~~- ---------7-----0--3/5-----5p3h5p3h5~------------------- -------------------------------------5-3\1------------- -------------------------------------------3-----------
---------------------------------------------------------------- ------3-6p3------------3~----7---------------------------------- -5(7)-------5p3---5(7)-------8(10)~~----5(7)5p3---3h5----------- ----------------5-------------------------------5-----5--------- ---------------------------------------------------------------- --------------------------------------------------------3~~~~~~-
----------------------------------------------- -3-------------3---------------3--------------- -5(7)~~~~~~~5--5(7)~~~~~~~~5---5(7)~~~~~~~~~~5- ----------------------------------------------- ----------------------------------------------- -----------------------------------------------
------------------------------3------------------3------------------------ -5------------------------6p3-------6p3--------3---6(8)~~--6p3------------ -7(9)7--7p6p5-3(4)----3-5-------5(7)-------5(7)----------------5p3----3--- -------------------5------------------------------------------------5---5- -------------------------------------------------------------------------- --------------------------------------------------------------------------
-------------------3--------------6------------- -----------------3---6p3------3---8(10)8-6---6~- ------------5(7)---------5(7)--------------7---- -3---------------------------------------------- ---5---1---------------------------------------- ---------3--------------------------------------
---------------- ---------------- -/15~~~-17-15~\- ---------------- ---------------- ---------------- 4x ||------------------------------------------------------------------------|| ||----------------15(16)-----------17(18)-----------18~~--18p15-----------|| ||----------------15(16)-----------17(18)-----------------------17-15-----|| ||-17p15h17p15h17---------17p15h17---------17p15h17-------------------17~-|| ||------------------------------------------------------------------------|| ||------------------------------------------------------------------------|| 3x ||------------------|| ||-------------18~~-|| ||------------------|| ||-17p15h17p15------|| ||------------------|| ||------------------||
Hey Izabella Girl, I'm holding you in my dreams, every night Yeah, but you know good and well baby You know we got this war to fight Well I'm callin' you under fire Well I hope you're receiving me all right
Hey Izabella, Izabella Girl, I'm fightin' this war for the children and you Izabella, yeah, yeah, yeah, baby Izabella All this blood is for the world of you Izabella, all your love So I hope you save your love, baby Then I know the fightin' is true
Izabella Hey Izabella, whoa Izabella Put on the rays of the rising sun Whoa Izabella, here they come Well I got back out there and fight now baby Whoa Izabella I got to cling to the devils on the run Whoa Izabella, on the run baby Whoa Izabella, So keep those dreams comin' in strong Soon I'll be holding you instead of this machine gun Izabella
Hey, Izabella, Izabella Ahh, sweet lover, Izabella Save all my blood for you Izabella, Izabella, Izabella, Izabella Whoa, whoa
















variations - click chord images
Transpose chords:
Tuning:
Cool service:
View: Size:
A  A  A
Rating:
Layout:
  • Currently 0/5 Stars.
  • 1
  • 2
  • 3
  • 4
  • 5
 
Accuracy:
  • Currently 2.5/5 Stars.
  • 1
  • 2
  • 3
  • 4
  • 5
 
click stars to rate
Chordie recommends:
Check out JamPlay.com for online video guitar lessons
Songbook:
Login to add this song to your songbook
Support the artist
Preview/buy this song
MSN Music
Why this non-profit ad?

 
login to add comments/video/corrections