Chordie logo

CROSSTOWN TRAFFIC     Jimi Hendrix


style="COLOR: #000000; FONT-SIZE: 11px;">e: Fri, 13 Mar 1998 16:02:21 +1100 (EST)

"CROSSTOWN TRAFFIC" ALA JIMI HENDRIX
TRANSCRIPTION BY JUSTIN CRUICKSHANK c9705480@engmail.newcastle.edu.au

INTRO/MAIN RIFF

E--------------------------------------------|--------------------------
B------------11------------------------------|--------------------------
G--------/12----12p10----10--8---------------|--------------------------
D-10-10---------------10---------------------|--------------------------
A-10-10-----------------------------8--------|8-8--8-8--8-8--8-8--8--8--
E--8--8------------------------8h11---11p8-6-|6-6--6-6--6-6--6-6--6--6--


E----------------------------
B----------------------------
G-8-8--8-8--8-8--8-8--8------
D------------------------10-
A----------------------------
E----------------------------

VERSE
                                         x2
E|| ------------------|------------------- ||----------------------|
B|| --4--4------------|------------------- ||----------------------|
G||.--3--3------------|-2--2--------------.||----------------------|
D||.--2--2------------|-1--1--------------.||-6--6-----------------|
A|| --3--3------------|-3--3-------------- ||-8--8-----------------|
E|| ------------------|-1--1-------------- ||-6--6-----------------|

E-------------------|----------------------|------------------------|
B-------------------|----------------------|------------------------|
G-8--8--------------|----------------------|------------------------|
D-8--8--------------|-4--4-----------------|-3--3-------------------|
A-6--6--------------|-6--6-----------------|-5--5-------------------|
E-------------------|-4--4-----------------|-3--3-------------------|

E-------------------------------------
B-11-11--11-11--11-11--11-11--11--11-
G-------------------------------------
D-------------------------------------
A-------------------------------------
E-------------------------------------

CHORUS BASE ON MAIN RIFF...I AIN'T Y'MUM, YOU CAN FIGURE IT OUT

INTERLUDE

E---------------------------|---------------------------------|
B------------------8--------|---------------------------------|
G-------/10--10------10-----|-------5b(6)--5b(6)--5b(6)r5p3p0-|
D-5--5------------------10-|-5--5----------------------------|
A-5--5----------------------|-5--5----------------------------|
E-3--3----------------------|-3--3----------------------------|


                              >hold bend<
E---------------------------------------------------------
B---------------------------------------------------------
G-------10b(12)--10b(12)-----10b(12)-(12)--10--8----------
D-5--5-------------------------------------------10--8h10-
A-5--5----------------------------------------------------


Important: The song above is NOT stored on the Chordie server. The original song is hosted at www.guitaretab.com. Chordie works as a search engine and provides on-the-fly formatting. Chordie does not index songs against artists/composers will. To remove this song please click here.

This song is displayed as text-only. Transposing and tuning is only available for chordpro-songs.

Rating click stars to rate

Layout
Accuracy

SHARE PAGE  

You need to log in to post comments