Chordie logo


Love Like Blood   John Hiatt



LOVE LIKE BLOOD. : Album : Night Time (1985). Updated : jan 18 2006.

INTRO. Two different ways to play it. Let ring…

D-----3--/---------|
A---1----/------8--|
F-2------/----5----|
C--------/--7------|
G--------/---------|
D--------/---------|

MAIN RIFF / VERSES. Let ring the first chord. C-0, low D-3, A-0 = palm-muted.
Notes ( )  = played sometimes.

D-------3-------------------------------------------------|
A-----1----------------------------------(1)--------------|
F---2----------------------------------(2----(2)----------|
C---------0--0-0—-0--0--0--0--0--0-0--0-0--0--0-----------|
G-0-------------------------------------------------------|
D------------------------------------------------3--3--3—-|

D----------------------------------------|
A----------------------------------------|
F----------------------------------------|
C----------------------------------------|
G-0--0-0--0--0--0--0--0--0-0--0-0-—0—-0--|
D----------------------------------------|

BREAK 1. Let ring the first chord. Low D-0 = palm-muted.

D-----------------0----------------------------------------------|
A---1---------4--------------------------------------------------|
F-2---2--0--2---4------------------------------------------------|
C----------------------------------------------------------------|
G----------------------------------------------------------------|
D--------------------0--0--0--0-0--0-0--0--0--0--0--0--0-0--0-0—-|

D-----------------------------------------|
A-----------------------------------------|
F-----------------------------------------|
C-----------------------------------------|
G-----------------------------------------|
D-0--0--0--0--0--0-0--0-0--0--0--0--0--0—-|

CHORUS. Let ring…

D--------------------------------------------------------------|
A---------0-----------------0---------------------0------------|
F-------------------4------------------4--------------------4--|
C------5----5----5-------5----5-----5----------5----5-----5----|
G---------------------5-----------5---------7-----------7------|
D-0^3----------3--------------------------0--------------------|

D--------------------|
A-----0--------0-----|
F-----4--------4-----|
C-0-----5---------5--|
G-----------0--------|
D--------------------|

BREAK 2. Part 1. Low D-0 = palm-muted. Let ring F, A, D strings.

D--------------------------------------------0--|
A----------------------------------------4------|
F------------------------------------------4----|
C-----------------------------------------------|
G-----------------------------------------------|
D-0--0-0--0--0--0--0--0--0-0--0-0--0--0---------|

D------------------------------------------------|
A----------------------------------------10-8----|
F---------------------------------------------0--|
C------------------------------------------------|
G------------------------------------------------|
D-0--0-0--0--0--0--0--0--0-0--0-0--0--0----------|

BREAK 2. Part 2. Low D-0 = palm-muted. Let ring F, A, D strings.

D-------------------0------------------------|
A---------------4--------------------10-8----|
F-----------------4-----------------------0--|
C--------------------------------------------|
G--------------------------------------------|
D-0--0-0--0--0---------0--0-0--0--0----------|


END RIFF. Let ring F, A, D strings. Low D, G, C strings = palm-muted.

D-----8---------------------------------------8-8---3--|
A-----6---------------------------------------6-6---1--|
F---7-7---------------------------------------7-7---2--|
C-0-----0-0--0--0--0--0--0--0-0--0-0--0--0--0----------|
G------------------------------------------------------|
D------------------------------------------------------|

D---------------------------------------|
A---------------------------------------|
F---------------------------------------|
C---------------------------------------|
G-0-0--0--0--0--0--0--0-0--0-0--0--0—0--|


Important: The song above is NOT stored on the Chordie server. The original song is hosted at www.guitaretab.com. Chordie works as a search engine and provides on-the-fly formatting. Chordie does not index songs against artists/composers will. To remove this song please click here.

This song is displayed as text-only. Transposing and tuning is only available for chordpro-songs.

Login - add to songbook

Rating click stars to rate

Layout
Accuracy

SHARE PAGE  




You need to log in to post comments