"yes"; ?> The Point by Hidden In Plain View - guitar chords, guitar tabs and lyrics - chordie
 D/F#GDA
e|---------|---------|---------|---------|
B|---------|---------|-----3---|---------|
G|-----2---|-----2---|---2---2-|-----2---|
D|---0---0-|---0---0-|-0-------|---2---2-| x2
A|---------|---------|---------|-0-------|
E|-2-------|-3-------|---------|---------|

x2 x2 x2 x2

Guitar 2:
 D/F#GDA
e|-----0---|-----0---|---0-2----0-2---|---0-2---------|
B|---3---3-|---3---3-|--------------2-|-------2---3-3-|
G|---------|---------|----------------|---------------|
D|---------|---------|-0------0-------|---------------| x2
A|---------|---------|----------------|-0-------0-----|
E|-2-------|-3-------|----------------|---------------|

x2 x2

Verse 1:
 D/F#G
   My voice is tired
 D
I can barely speak
 AD/F#
a whisper these words
 G
We clear our minds
And these broken
 D
 bottles and glasses
 A
   Heal our lives
 D/F#
So drinks to the skies
 G
and blood to your eyes
 DA
This rooftop is understanding
 D/F#
So swallow your pride
 G
or choke till you die
 DA
Cause this fall's unforgiving

Refrain:
 A/C#D
   So call on your angels
 G
To get your fall tonight
 A/C#D
   And I'll crawl on my hands
 G
Pouring out my insides

Chorus:
 DA/C#G
I'll wait for  you
 D
Hoping to change your mind
 A/C#G
Hoping's all I can do

Verse 2:
 D/F#G
   These days are tired and
 DA
the nights are overwhelming
 D/F#
As we spoke through silence
 G
routine silence
 DA
with nothing more to say
D/F#(silent)
So drinks to the skies
 G
And blood to your eyes
 DA
 I'll be understanding
D/F#(distortion) G
Tonight
 D
I'll understand
A(hold)
everything tonight

(Repeat Chorus twice)

Bridge:
 D/F#G
   And I'm dying coz
you're leaving
 D
 Hopes abandoned my
 A
 heart's still beating
 D/F#G
   But I never gave up trying
 DA
I did everything for you
D/F#(hold) G(hold)
I did everything

Interlude: D-A/C#-G x2

Outro:
D A/C# G A-A-A-D(hold)
I'll wait for you


A A/C# D D/F# G
variations - click chord images
Transpose chords:
Tuning:
Cool service:
View: Size:
A  A  A
Rating:
Layout:
  • Currently 3.1/5 Stars.
  • 1
  • 2
  • 3
  • 4
  • 5
 
Accuracy:
  • Currently 3.1/5 Stars.
  • 1
  • 2
  • 3
  • 4
  • 5
 
click stars to rate
Chordie recommends:
Get acoustic guitar lessons and electric guitar lessons at JamPlay.com
Songbook:
Login to add this song to your songbook
Support the artist
Preview/buy this song
MSN Music
Why this non-profit ad?

 
login to add comments/video/corrections