Chordie logo

Battles Not Worth Waging   Hiding With Girls




Guitar One - Drop D Tuning - DADGBE
Guitar Two - Drop D Tuning - DADGBE

Edited 07/08/06

Intro

Guitar One
    |00.06
E|------------------------------|
B|------------------------------|
G|--77777777-7h10-5h7-7h10-5h7--|
D|------------------------------|
A|------------------------------|
D|------------------------------|


Guitar Two
   |00.16(Over Guitar One)
E|------------------------------------|
B|------------------------------------|
G|------------------------------------|
D|-7-10-7-10--------------------------|
A|-7-10-7-10--------------------------|
D|-7-10-7-10--------------------------|



Both Gutars
   |00.26
E|-0~-----------------------|
B|-0~-----------------------|
G|-0~-----------------------|
D|-0~-7-10-7-10-0-3-0-3-0---|
A|-0~-7-10-7-10-0-3-0-3-0---|
D|-0~-7-10-7-10-0-3-0-3-0---|


Guitar One

00.34
E|--------------------|
B|--------------------|
G|-10p1-10p0-9p0-9p0--|
D|--------------------|
A|--------------------|
D|--------------------|

Guitar Two

00.34
   ....      .... 
E|-----------------------|
B|-----------------------|
G|-3333-5555-5555-5555---|
D|-3333-xxxx-5555-xxxx---|
A|-1111-3333-3333-3333---|
D|-----------------------|


Both Gutars
   |00.37
E|------------------------|
B|------------------------|
G|------------------------|
D|--7-10-7-10-0-3-0-3-0---|
A|--7-10-7-10-0-3-0-3-0---|
D|--7-10-7-10-0-3-0-3-0---|

Guitar One

00.44
E|--------------------|
B|--------------------|
G|-10p1-10p0-9p0-9p0--|
D|--------------------|
A|--------------------|
D|--------------------|

Guitar Two

00.44
   ....      ....       (Last note Held Over Beggining over verse)
E|---------------------0----|
B|---------------------0----|
G|-3333-5555-5555-5555-7~---|
D|-3333-xxxx-5555-xxxx-x~---|
A|-1111-3333-3333-3333-5~---|
D|---------------------0----|



Verse

No guitar in verse just bass untill 00.55 Where both Guitars Play after guitar one Slides

Guitar One

00.55
   .. .. ....
E|------------------------|
B|------------------------|
G|------------------------|
D|-------3333-------------|
A|-33-00------------------|
D|------------------------|

Guitar Two

00.55
   .. .. ....
E|------------------------|
B|------------------------|
G|------------------------|
D|-------3333-------------|
A|-33-00------------------|
D|------------------------|


Both Guitars
 0.58
   .. .. 
E|----------------------------|
B|-------5555-----------------|
G|----------------------------|
D|----------------------------|
A|-55-00----------------------|
D|----------------------------|

Both Guitars

1.01           1.04
   .. .. ....  ...........
E|----------------------------|
B|-------------------55-00----|
G|----------------------------|
D|-------3333-----------------|
A|-33-00-------55-00----------|
D|----------------------------|

Chorus One

Both Guitars

1.05
E|------------------------|
B|------------------------|
G|------------------------|
D|--7-10-7-10-0-3-0-3-0---|
A|--7-10-7-10-0-3-0-3-0---|
D|--7-10-7-10-0-3-0-3-0---|


Guitar One

1.12
E|--------------------|
B|--------------------|
G|-10p1-10p0-9p0-9p0--|
D|--------------------|
A|--------------------|
D|--------------------|

Guitar Two


1.12
   ....      ....       (Last note Held Over Beggining over verse)
E|---------------------0-----|
B|---------------------0-----|
G|-3333-5555-5555-5555-7~----|
D|-3333-xxxx-5555-xxxx-x~----|
A|-1111-3333-3333-3333-5~----|
D|---------------------0------|

Verse Two Same as first verse

Chorus Two

Both Guitars

1.46
E|------------------------|
B|------------------------|
G|------------------------|
D|--7-10-7-10-0-3-0-3-0---|
A|--7-10-7-10-0-3-0-3-0---|
D|--7-10-7-10-0-3-0-3-0---|


Guitar One

1.54
E|--------------------|
B|--------------------|
G|-10p1-10p0-9p0-9p0--|
D|--------------------|
A|--------------------|
D|--------------------|


Guitar Two

1.54
   ....      ....       
E|---------------------0~----|
B|---------------------0~----|
G|-3333-5555-5555-5555-7~--|
D|-3333-xxxx-5555-xxxx-x~--|
A|-1111-3333-3333-3333-5~--|
D|---------------------0~----|

Interlude

Both Guitars

2.09                2.19   
                                        
E|------------------xx--------------|
B|------------------xx--------------|
G|------------------xx--------------|
D|-77-00---99-1010--xx--------------|
A|-77-00---99-1010--xx--------------|
D|-77-00---99-1010--xx--------------|

Guitar one
 
2.30             ..      .. 
E|------------------------------------------|
B|---------10-00-1313-00--------------------|
G|-----------------------10p1-10p0-9p0-9p0--|
D|-10p010p0---------------------------------|
A|------------------------------------------|
D|------------------------------------------|

Guitar two

2.30
E|------------------|
B|------------------|
G|------------------|
D|-77-00---99-1010--|
A|-77-00---99-1010--|
D|-77-00---99-1010--|

2.39
E|------------------------|
B|------------------------|
G|------------------------|
D|--7-10-7-10-0-3-0-3-0---|
A|--7-10-7-10-0-3-0-3-0---|
D|--7-10-7-10-0-3-0-3-0---|

-chorus-

Ending

E|---------|
B|---------|
G|---------|
D|--77-0~--|
A|--77-0~--|
D|--77-0~--|



Important: The song above is NOT stored on the Chordie server. The original song is hosted at www.guitaretab.com. Chordie works as a search engine and provides on-the-fly formatting. Chordie does not index songs against artists/composers will. To remove this song please click here.

This song is displayed as text-only. Transposing and tuning is only available for chordpro-songs.

Login - add to songbook

Rating click stars to rate

Layout
Accuracy

SHARE PAGE  

You need to log in to post comments