Chordie logo


Highway Man   Highway Jackson



e|----------------------------------------------|         www.highwayjackson.net
B|----------------------------------------------|
G|----------------------------------------------|
D|----------------------------------------------|  X2
A|--------------------5-3-------------------5-3-|
E|---x-x-3-5-x-x-x-x-x----x-x-3-5-x-x-x-x-x-----|

 |----------------------------------------------       |--------|
 |----------------------------------------------       |--------|
 |----------------------------------------------       |--------|
 |---------------------7-5------------------7-5-  X2   |--------|
 |-------5-7-----------5-3-----5-7----------5-3-       |----5-4-|
 |---x-x-3-5-x-x-x-x-x-----x-x-3-5-x-x-x-x-x----       |----3-2-|

 |----------------------------------------------       |--------|
 |----------------------------------------------       |--------|
 |----------------------------------------------       |--------|
 |---------------------7-5------------------7-5-  X2   |--------|
 |-------5-7-----------5-3-----5-7----------5-3-       |----5-4-|


Important: The song above is NOT stored on the Chordie server. The original song is hosted at www.guitaretab.com. Chordie works as a search engine and provides on-the-fly formatting. Chordie does not index songs against artists/composers will. To remove this song please click here.

This song is displayed as text-only. Transposing and tuning is only available for chordpro-songs.

Login - add to songbook

Rating click stars to rate

Layout
Accuracy

SHARE PAGE  




You need to log in to post comments