Chordie logo

Hosanna  Hillsong United

[E]I see the king of glory
[C#m]Coming on the clouds with fire
[A]The whole earth shakes
[B]The whole earth shakes yeah [C#m]
[E]I see his love and mercy
[C#m]Washing over all our sin
[A]The people sing
[B]The people sing

Chorus 1
Hosanna Hosanna
E|-----0-------0-------0-------0-----|
B|---0---0---0---0---0---0---0---0---|
G|-----------------------------------|
D|-----------------------------------|
A|---------0-------2-------4---------|
E|-4---------------------------------|

Hosanna in the highest
E|-----0-------0-------0-------0-----|
D|---0---0---0---0---0---0---0---0---|
G|-----------------------------------|
D|-----------------------------------|
A|-0-------4-------2-------2---------|
E|-----------------------------------|

Hosanna Hosanna
E|-----0-------0-------0-------0-----|
B|---0---0---0---0---0---0---0---0---|
G|-----------------------------------|
D|-----------------------------------|
A|---------0-------2-------4---------|
E|-4---------------------------------|

Hosanna in the highest
E|-----0-------0---------------------|
B|---0---0---0---0-------------------|
G|-----------------------------------|
D|-----------------------------------|
A|-0-------2-------------------------|
E|-----------------------------------|


Verse 2 (same chords as verse 1)
I see a generation
Rising up to take their place
With selfless faith
With selfless faith

I see a new reviveal
Staring as we pray and seek
We're on our knees
We're on our knees

Chorus 2
[E]Hosan[A]na [B]Hosan[C#m]na
[A]Hosan[C#m]na in the [B]highest
[E]Hosan[A]na [B]Hosan[C#m]na
[A]Hosanna in the [B]highest

Solo C#m E A B (2x)

Bridge
[A]Heal my heart and make it [B]clean
[E]Open up my eyes to the [C#m]things i've seen
[A]Show how to love like [B]you have loved me  [C#m]
[A]Break my heart for what breaks [B]yours
[E]Everything i am for your [C#m]kindgom's cause
[A]As i went from nothing [B]to eternity

Break
[C#m]                                     
Chorus 3
Hosanna Hosanna
E|-----0-------0-------0-------0-----|
B|---0---0---0---0---0---0---0---0---|
G|-----------------------------------|
D|-----------------------------------|
A|---------0-------2-------4---------|
E|-4---------------------------------|

Hosanna in the highest
E|-----0-------0-------0-------0-----|
D|---0---0---0---0---0---0---0---0---|
G|-----------------------------------|
D|-----------------------------------|
A|-0-------4-------2-------2---------|
E|-----------------------------------|

Hosanna Hosanna
E|-----0-------0-------0-------0-----|
B|---0---0---0---0---0---0---0---0---|
G|-----------------------------------|
D|-----------------------------------|
A|---------0-------2-------4---------|
E|-4---------------------------------|

Hosanna in the highest
E|-----0-------0---------------------|
B|---0---0---0---0-------------------|
G|-----------------------------------|
D|-----------------------------------|
A|-0-------2-------------------------|
E|-----------------------------------|


Chorus 2
[E]Hosan[A]na [B]Hosan[C#m]na
[A]Hosan[C#m]na in the [B]highest
[E]Hosan[A]na [B]Hosan[C#m]na
[A]Hosanna in the [B]highest[C#m]

End on E
Repeat intro (2x during fade out softly)

Important: The song above is NOT stored on the Chordie server. The original song is hosted at www.guitaretab.com. Chordie works as a search engine and provides on-the-fly formatting. Chordie does not index songs against artists/composers will. To remove this song please click here.

A B C#m E
variations - click chord images

Login - add to songbook

Transpose chords

Tuning

Rating click stars to rate

Layout
Accuracy

SHARE PAGE  

You need to log in to post comments