Guitar Tabs, Chords and Lyrics


At The Cross  Hillsong United

      [E]      [Asus2]         [B]      [C#m7]                  
e|----------------------------------|
B|-----------------------------5----|
G|------4-------4------4----4-------|
D|----2-------2------4--------------|
A|----------0------2------4---------|
E|--0-------------------------------|

Oh Lord you searched me
      [E/G#]         [Asus2]         [B]                    
e|---------------------------|
B|---------------------------|
G|------4-------4------4-----|
D|----2-------2------4-------|
A|----------0------2---------|
E|--4------------------------|

You know my way
      [E/G#]         [Asus2]         [B]      [C#m7]              
e|----------------------------------|
B|-----------------------------5----|
G|------4-------4------4----4-------|
D|----2-------2------4--------------|
A|----------0------2------4---------|
E|--4-------------------------------|

Even when I fail You,
          [A2]           [B]                       
e|---------------------------|
B|--------0--------0---------|
G|------2--------2-------4---|
D|----2--------2-------4---4-|
A|--0--------0-------2-------|
E|---------------------------|

I know you love me

[E/G#]    Your [Asus2]holy pre[B]sen[C#m7]ce
[E/G#]     Sur[Asus2]rounding me [B]
[E/G#]    In [Asus2]every sea[B]son[C#m7],
[A2]I know You [B]love me;
[A2]I know You [B]love me.

Chorus:
[Esus2]  At the cross I bow my knee[C#m],
Where Your blood was shed [A]for me,
There’s no greater love than [B]this.
[E]  You have overcome the [C#m]grave,
Your glory fills the high[A]est place,
What can separate me [B]now?


Verse 2:
[E]    Yo[Asus2]u go bef[B]ore m[C#m7]e,
[E/G#]    You [Asus2]shield my way[B],   [-]
[E/G#]    Your [Asus2]hand uphol[B]ds me[C#m7];
[A2]I know You [Bsus]love [B]me.
[E/G#]    And [A2]when the [B]earth [C#m7]fades,
[E/G#]    Falls [Asus2]from my eyes[B],   [-]
[E/G#]    And You [A2]stand be[B]fore[C#m7] me,
[A2]I know You l[B]ove me;
[A2]I know You l[B]ove me.

Bridge:
You tore the [A2]veil, [B]You made a [C#m7]way
When You [A]said that[C#m7] it is [B]done.


Important: The song above is NOT stored on the Chordie server. The original song is hosted at www.guitaretab.com. Chordie works as a search engine and provides on-the-fly formatting. Chordie does not index songs against artists'/composers' will. To remove this song please click here.

Text color:
Chord color:
Chord grids: 
Font size:    
Page size: 

A A2 Asus2 B Bsus C#m C#m7 E E/G# Esus2
variations - click chord images

Login - add to songbook

Transpose chords

Tuning

Rating click stars to rate

Layout
Accuracy

SHARE PAGE  




You need to log in to post comments