Chordie logo

All Day  Hillsong United

[G#]I don't care[E] what they say about[B] me             [F#]
[G#]It's a[E]lright, [B]alr[F#]ight
[G#]I don't ca[E]re they think [B]about me        [F#]
[G#]It's [E]alright, they'll get[B] it one day     [F#]


Pre-Chorus
[G#]I love y[E]ou, I'll fo[B]llow you[F#]
[G#]You are [E]my, my life[B]        [F#]
[G#]I will r[E]ead my bibl[B]e and pr[F#]ay
[G#]I will f[E]ollow you a[B]ll day  [F#]

Guitar Solo

Verse 2:
[G#]I don't care[E] what it costs anymo[B]re              [F#]
[G#]Cos' you gav[E]e it all and I'm fol[B]lowing you      [F#]
[G#]I don't care[E] what it takes anymo[B]re              [F#]
[G#]No matter wh[E]at happens I'm going[B] your way       [F#]

Pre-Chorus

Chorus:
[B]All Da[E]y
[B]All Da[F#]y now
[B]All Da[E]y
[G#]     [E]                                
Verse 1

Pre-Chorus

Chorus

Bridge:
C#| E| C#| E| C#| E| B| E|
[C#]      Anyon[E]e around can see           [C#]
just how good you'[E]ve been to me                    [C#]
For all my friends[E] that don't know you                     [C#]
I pray that you wou[E]ld save them too  [B]                    [E]

Chorus
2x net drums en bass
2x guitar, drums & bass
4x almal

GUITAR SOLO

e---------------------------------------------------------------------------------------------|
B-12-12-11-11-12-12-----12-12-11-11-12-12-----12-12-11-11-12-12-------------------------------|
G----------------------------9-8---------------------------9-8---------------------------9-8--|
e-------------------11/12\11-----|
B-12-12-11-11--------------------|
G--------------------------------|


BASS INTRO

g-----------------------------------------------------------|
d----------------------6------------------------------------|
a-------------6-7-7-----7--------6-7-----2-1----------------|
e----4-4-7-----------------7-7-------2-2--------------------|				


Important: The song above is NOT stored on the Chordie server. The original song is hosted at www.guitaretab.com. Chordie works as a search engine and provides on-the-fly formatting. Chordie does not index songs against artists/composers will. To remove this song please click here.

B C# E F# G#
variations - click chord images

Login - add to songbook

Transpose chords

Tuning

Rating click stars to rate

Layout
Accuracy

SHARE PAGE  

You need to log in to post comments