"yes"; ?> My God by Hillsong - guitar chords, guitar tabs and lyrics - chordie

My God

Hillsong

 BmCD
E|------------------------------|
B|----------------8h7---8h7-----|
G|--444---555---7-----7-----7---|
D|--444---555---7---------------|
A|------------------------------|
E|------------------------------|


Verse 1: (all chords are palm muted for lead guitar)
 C
Your faithful love
 GDEm
has always been there for me
 CGD
The greatest love that i have ever known

Lead Guitar:
E|---------------------------|
B|---------------------------|
G|---------------------------|
D|------5-5h7p5--------------|
A|---5h7-7-----7\5-----------|
E|---------------------------|


Verse 2: (all chords are palm muted for lead guitar)
 CG
What can i give to you 
 DEm
For all You've given to me
 C
You gave it all
 GD----D
And You are all i need

Pre-chorus:
D / Em (slide up)
You are my king,
C (slide down to C)
You are my God
D Em (slide up)
Praises I bring
C (slide down to C)
Come from my heart

Chorus:
 Bm
This is for You
 CD
For all You've done for me
 BmC
and I wanted to show You
 D
How much You mean
Em-F#m-G slide down D-F#m-G (for Rhythm Guitar)
My God,
C-/-D~~~ (for Rhythm Guitar)
my God

Lead Guitar:
E|---------------------------------|
B|---------------------------------|
G|---------------------------------|
D|---2-4-4/5v---4-4/5v-------------|
A|-----------5v-------3~~~sl-5~~~--|
E|---------------------------------|


This is a great song! Hopefully that you may enjoy the tab I made.
All comments and suggestions are very much welcome, just email me at jo_bert2529@yahoo.com
God Bless you all and thanx c:

Bm C D Em G
variations - click chord images
Transpose chords:
Tuning:
Cool service:
View: Size:
A  A  A
Rating:
Layout:
  • Currently 2.5/5 Stars.
  • 1
  • 2
  • 3
  • 4
  • 5
 
Accuracy:
  • Currently 2.4/5 Stars.
  • 1
  • 2
  • 3
  • 4
  • 5
 
click stars to rate
Chordie recommends:
Learn how to play guitar at JamPlay.com
Songbook:
Login to add this song to your songbook
Support the artist
Preview/buy this song
MSN Music
Why this non-profit ad?

 
login to add comments/video/corrections