Guitar Tabs, Chords and Lyrics


Through It All  Hillsong

   [G]            [Em]              [C]          [D]                                                             
e-----------|--------------|---------|-------------|
B--1-----0--|-3-----3------|-0-------|-3-----3-----|
G----0------|---0-----0----|---0---2-|---2-----2---|
D------0----|-----2-----2--|-----2---|-0---0-----0-|
A-----------|--------------|-3-------|-------------|
E--3-----3--|-0------------|---------|-------------|

   [G]            [Em]              [C]          [D]                                                             
e-----------|--------------|---------|-------2-----|
B--1-----0--|-3-----3------|-0-------|-3-----3-----|
G----0------|---0-----0----|---0---2-|---2---2-----|
D------0----|-----2-----2--|-----2---|-0---0-0-----|
A-----------|--------------|-3-------|-------------|
E--3-----3--|-0------------|---------|-------------|


Verse:
[G]You are fore[D/F#]ver in my h[Em]eart You s[C]ee me through the s[Dsus]eason
[G]Cover [D/F#]me with your [Em]hand And le[C]ad me in your righteou[Dsus]sness

Pre-Chorus:
[Bm]And I look [CM7]to you[Bm]   And I wait [C]on[-] y[D]ou

Chorus:
[G]I'll sing to you Lord a h[C]ymn of love
For your [D]faithfulne[Em]ss to [C]me[D]
[G]I'm carried in [C]everlasting arms
[D/F#]You'll [G]never let me[C] go
[D]Through it all

Coda:
Ha[G]llelu[Em]jah  H[C]allel[D]ujah
Ha[G]llelu[Em]jah  H[C]allel[D]ujah

*** Just send your questions and requests to schizophrenic29@yahoo.com or CP # 09202658112

Important: The song above is NOT stored on the Chordie server. The original song is hosted at www.guitaretab.com. Chordie works as a search engine and provides on-the-fly formatting. Chordie does not index songs against artists'/composers' will. To remove this song please click here.

Text color:
Chord color:
Chord grids: 
Font size:    
Page size: 

Bm C Cm7 D D/F# Dsus Em G
variations - click chord images

Login - add to songbook

Transpose chords

Tuning

Rating click stars to rate

Layout
Accuracy

SHARE PAGE  




You need to log in to post comments