Guitar Tabs, Chords and Lyrics


Always  Hillsong

----------------------------------------------



   [Bm]      [G]      [D]             [A]                                                       
e|--2----3------10-10---------*12--*9--*5---|
B|---3----3---10------10---*12--------------|
G|------------------------------------------|  (2x)
D|------------------------------------------|
A|------------------------------------------|
E|------------------------------------------|

Verse:
Did You r[Bm]ise the sun for me?
Or pa[G]int a million stars that I might kn[D]ow Your majesty?[A]
Is Your v[Bm]oice upon the wind?
Is ev[G]erything I've known marked with my M[D]aker's
fingerprints? [A]

Pre-Chorus:
[G] Breathe on [Bm]me
Let me s[A]ee Your fa[D-Dsus]ce
[G] Ever [A]I will seek You...

Chorus:
[D] Cause all You [A/C#]are is all I w[Bm]ant, always[G]
[D/F#]Draw me cl[A]ose in Your ar[Bm]ms
Oh G[G]od, I wanna be with You[D-A-Bm-G]

Verse1:
Can I f[Bm]eel You in the rain?
Ab[G]andon all I am to have You c[D]apture me again [A]
Let the ea[Bm]rth resound with praise
Can you h[G]ear as all creation lives to g[D]lorify one Name?[A]
(Repeat Pre-chorus)

Chorus:
[D] Cause all You [A/C#]are is all I w[Bm]ant, always[G]
[D/F#]Draw me cl[A]ose in Your ar[Bm]ms
Oh G[G]od, I wanna be with You

Adlib: D-C-Bm-G (2x)
Instrumental: D-A-Bm-G
    [D]                    [A]                                                           
e|--9h10-10-10-10-10-10---------------------|
B|----------------------7-8/10-10-10-10-10--|
G|------------------------------------------|
D|------------------------------------------|
A|------------------------------------------|
E|------------------------------------------|


    [Bm]                    [G]                                                           
e|--9h10-10-10-10-10-10---------------------|
B|----------------------7-8/10-10-10-10-10--|
G|------------------------------------------|
D|------------------------------------------|  (6x)
A|------------------------------------------|
E|------------------------------------------|


*stop all instrument* acoustic only*

Chorus:
[D] Cause all You [A/C#]are is all I w[Bm]ant, always[G]
[D/F#]Draw me cl[A]ose in Your ar[Bm]ms
G D D/C G/B G (2x)
Oh God, I wanna be with You
outro with drums: D-A-Bm-G

legend:
/ - slide down
* - harmonic
----------------------------------------End---------------------------------

Glory to God!!!
Always!!! : )

Important: The song above is NOT stored on the Chordie server. The original song is hosted at www.guitaretab.com. Chordie works as a search engine and provides on-the-fly formatting. Chordie does not index songs against artists'/composers' will. To remove this song please click here.

Text color:
Chord color:
Chord grids: 
Font size:    
Page size: 

A A/C# Bm D D/F# G
variations - click chord images

Login - add to songbook

Transpose chords

Tuning

Rating click stars to rate

Layout
Accuracy

SHARE PAGE  




You need to log in to post comments