What The World Will Never Take

Hillsong

------------------------------------------|

------------------------------------------|
-------2-1-1-1-1h2-------2-1-1-1-1h2------|
------------------------------------------|
-0-0-----------------0-0------------------|
------------------------------------------|
------------------------------------------|
------------------------------------------|
---------2-1-1-1-1h2--------2-1-1-1-1h2---|
-----0-0----------------0-0---------------|
------------------------------------------|
------------------------------------------|
------------------------------------------------------------|
------------------------------------------------------------|
-6-6-4-6---6--4-6---6-4-6-6b--6-6-4-6---6--4-6---6-4-6-6b---|
------------------------------------------------------------|
------------------------------------------------------------|
------------------------------------------------------------|

 A
 I've got a Savior and He's living in me
 DF#mBm
 Whoa I wanna know       
 D
I wanna know You today
 A
 And You're the best thing that has happened to me
 F#m
And the world will never take
 BmD
The world will never take You away

Verse 2
With all I'm hoping to be
And all that the world will bring
And all that fails to compare

Pre Chorus

Chorus (2x)

Brake
4 Measures rest

Solo
-----------------------------------------------------|
--------10--------10-----10---------10-12-12b-10-----|
-11-11------11-11-----11-----10-10-------------------|
-----------------------------------------------------|
-----------------------------------------------------|
-----------------------------------------------------|
-----------------------------------------------------|
-----------------------------------------------------|
-----6------6-/------8------8------------------------|
-7-7----7-7---/-9-9—9-9------------------------------|
-----------------------------------------------------|
-----------------------------------------------------|


Chorus (2x)

Ending (2x)
 ADA
 No-one could ever take You away


A Bm D F#m
variations - click chord images
Transpose chords:
Tuning:
Cool service:
View: Size:
A  A  A
Rating:
Layout:
  • Currently 2.8/5 Stars.
  • 1
  • 2
  • 3
  • 4
  • 5
 
Accuracy:
  • Currently 2.7/5 Stars.
  • 1
  • 2
  • 3
  • 4
  • 5
 
click stars to rate
Chordie recommends:
Learn to play guitar with video-based, online guitar lessons at JamPlay.com
Songbook:
Login to add this song to your songbook
Support the artist
Preview/buy this song
MSN Music
Why this non-profit ad?

 
login to add comments/video/corrections