Guitar Tabs, Chords and Lyrics


All About You  Hillsong

e|-----------------------|


B|-----------------------|


G|-4h6-4h6-4h6-4h6-6b7r6-|

D|-----------------------|
A|-----------------------|
E|-----------------------|
e|-----------|
B|-----------|
D|-----------|
A|-----------|
E|-----------|
e|------------------------||------------------------|
B|------------------------||------------------------|
G|-11-11-11-11-11-11-11---||-9-9-9-9-9-7-7-7-7-7-7--|
D|-11-11-11-11-11-11-11---||-9-9-9-9—9-7-7-7-7-7-7--|
A|-9--9—-9—-9--9—-9--9----||-7-7-7-7-7-5-5-5-5-5-5--|
E|------------------------||------------------------|
e|------------------------||------------------------|
B|------------------------||------------------------|
G|-11-11-11-11-11-11-11---||-11-11-11-11-11-11-11---|
D|-11-11-11-11-11-11-11---||-11-11-11-11-11-11-11---|
A|-9--9—-9—-9--9—-9--9----||-9--9—-9—-9--9—-9--9----|
E|------------------------||------------------------|

Hear our hearts cry your love is everything

Pre-Chorus:
[F#m]And all wil[E5]l hear this shout
As the [A5]nations turn to[D5] you
[F#m]And this will be our [D]anthem

Chorus:
Cause we're all about [A]you And the world y[A/G#]ou promise
And all we h[D]ave will give you praise Cause we're all a[F#m]bout you
And the world can't [E]stop us living you [D]way
Al[D]ways

Guitar 1
PH PH PH PH PH
e|-----------------------||-----------|
B|-----------------------||-----------|
G|-4h6-4h6-4h6-4h6-6b7r6-||-2-1~~~~---|
D|-----------------------||-----------|
A|-----------------------||-----------|
E|-----------------------||-----------|


Verse II:
[F#m]Let our hearts break
[E]As we praise your[D] name
[F#m]Let the earth shake
This[E] is the sound o[D]f faith

Bridge:

  [B5]                        [F#5]                                                                 
e|----------------------------------|
B|----------------------------------|
G|-4-4-4-4-4-4-4-4-4-4--------------|
D|-4-4-4-4-4-4-4-4-4-4-4-4-4-4-4-4--|
A|-2-2-2-2-2-2-2-2-2-2-4-4-4-4-4-4--|
E|---------------------2-2-2-2-2-2--|

And the walls will fall down

              [D]                                                                             
e|------------------------------------------------|
B|------------------------------------------------|
G|--------------------7-7-7-7-13/14-7-7-7-7-13/14-|
D|--4-4-4-4-4-4-4-4-4-7-7-7-7-------7-7-7-7-------|
A|--4-4-4-4-4-4-4-4-4-5-5-5-5-11/12-5-5-5-5-11/12-|
E|--2-2-2-2-2-2-2-2-2-----------------------------|

And religions will break

  [B5]                        [F#5]                                                                
e|----------------------------------|
B|----------------------------------|
G|-4-4-4-4-4-4-4-4-4-4--------------|
D|-4-4-4-4-4-4-4-4-4-4-4-4-4-4-4-4--|
A|-2-2-2-2-2-2-2-2-2-2-4-4-4-4-4-4--|
E|---------------------2-2-2-2-2-2--|

And the nations will hear this shout

e|------------------------------------------------|
B|------------------------------------------------|
G|--------------------7-7-7-7-7-7-7-7-13/14-------|
D|--4-4-4-4-4-4-4-4-4-7-7-7-7-7-7-7-7-------------|
A|--4-4-4-4-4-4-4-4-4-5-5-5-5-5-5-5-5-11/12-------|
E|--2-2-2-2-2-2-2-2-2-----------------------------|

Can you hear the sound of faith

*** It’s always nice to hear from a Christian musician. Just send your questions and
requests to schizophrenic29@yahoo.com or CP # 09202658112.

Important: The song above is NOT stored on the Chordie server. The original song is hosted at www.guitaretab.com. Chordie works as a search engine and provides on-the-fly formatting. Chordie does not index songs against artists'/composers' will. To remove this song please click here.

Text color:
Chord color:
Chord grids: 
Font size:    
Page size: 

A A/G# A5 B5 D D5 E E5 F#5 F#m
variations - click chord images

Login - add to songbook

Transpose chords

Tuning

Rating click stars to rate

Layout
Accuracy

SHARE PAGE  




You need to log in to post comments