Guitar Tabs, Chords and Lyrics


The Stand   Hillsong



Hillsong
The Stand
United We Stand
2006

Chorus: 1:20
e|---------4------5------4------|---------4------5------7-|
B|------------0h2----2p0--------|------------0h2----2p0---|
G|-2---2h4------------------4\2-|-2---2h4-----------------|
D|------------------------------|-------------------------|
A|------------------------------|-------------------------|
E|------------------------------|-------------------------|
             x3

Verse 2:
e|-12------------|
B|-10------------|
G|--9------------|
D|---------------|
A|---------------|
E|---------------|

(Repeat Chorus)

Chorus 2: 2:40
e|---------4------5------4------|---------4------5------9---12\5-|
B|------------0h2----2p0--------|------------0h2----2p0----------|
G|-2---2h4------------------4\2-|-2---2h4------------------------|
D|------------------------------|--------------------------------|
A|------------------------------|--------------------------------|
E|------------------------------|--------------------------------|
then
e|-----9------4h5p4--------|
B|-------------------------|
G|-4/6----6\4--------------|
D|-------------------------|
A|-------------------------|
E|-------------------------|

Bridge: 3:02 (slower)
e|-9----9----12----12----------------10p9----10p9----|
B|---10---10----10----10-12\10-12\10------10------10-|
G|---------------------------------------------------|
D|---------------------------------------------------| (x5)
A|---------------------------------------------------|
E|---------------------------------------------------|
then
e|-9----9--------------------------10p9----10p9----|
B|---10---10-9h10-9h10-12\10-12\10------10------10-|
G|-------------------------------------------------|
D|-------------------------------------------------| (x2)
A|-------------------------------------------------|
E|-------------------------------------------------|
then
e|-9----9----12----12----------------10p9----10p9----9~-|
B|---10---10----10----10-12\10-12\10------10------10----|
G|------------------------------------------------------|
D|------------------------------------------------------|
A|------------------------------------------------------|
E|------------------------------------------------------|

"So I'll Stand" 3:56 to 4:22, the lead guitar is idle


4:30 2nd line "In Your"
e|---0-2------5-0---5-0-----2-0--|
B|-3------2-------0--------------|
G|----------2-------------2------|
D|----------------------4--------| (x2)
A|-------------------------------|
E|-------------------------------|
then


Important: The song above is NOT stored on the Chordie server. The original song is hosted at www.guitaretab.com. Chordie works as a search engine and provides on-the-fly formatting. Chordie does not index songs against artists/composers will. To remove this song please click here.

This song is displayed as text-only. Transposing and tuning is only available for chordpro-songs.

Login - add to songbook

Rating click stars to rate

Layout
Accuracy

SHARE PAGE  




You need to log in to post comments