eToCache5 = ""; ?> I Believe by Hillsong - guitar chords, guitar tabs and lyrics - chordie

I Believe

Hillsong

 EmEmEmEmCDDDEm
E|-7---------7--7--7-----3---------5--5--5-----7-----|
B|-8---------10-10-10----5---------7--7--7-----8-----|
G|-9---------7--7--7-----5---------7--7--7-----9-----|
D|-9---------9--9--9-----5---------7--7--7-----9-----|
A|-7---------7--7--7-----3---------5--5--5-----7-----|
E|-7---------7--7--7-----3---------5--5--5-----7-----|


 EmEmEmCAmAmAm
E|-7--7--7-----3---------5--5--5-----------| **repeat
B|-10-10-10----5---------5--5--5-----------|
G|-7--7--7-----5---------5--5--5-----------|
D|-9--9--9-----5---------7--7--7-----------|
A|-7--7--7-----3---------7--7--7-----------|
E|-7--7--7-----3---------5--5--5-----------|


Verse 1: *same as intro*
 EmEmCD
     Now I know there's a better way                

 EmEmCAm
     I love you more and more each day              

 EmEmCD
     I put my faith in the one I love               

 EmEmCAm
     and I believe in God above                     

Chorus:

 GDEmDC
  I believe, I believe, I believe in the son of God,

 GDAm7
            I'm alive in you Jesus          

 GCG
    No one could ever save my soul....    but you    

Verse 1: *same as intro*

 EmEmCD
     Now I know there's a better way                

 EmEmCAm
     I love you more and more each day              

 EmEmCD
     I put my faith in the one I love               

 EmEmCAm
     and I believe in God above                     

Chorus:

 GDEmDC
  I believe, I believe, I believe in the son of God,

 GDAm7
            I'm alive in you Jesus          

 GCG
    No one could ever save my soul....    but you           **repeat

Instrumental:
Em *play for 4 bars
C *play for 4 bars

Bridge:
 GC
   Forever, forever, forever I praise your name     *repeat times 4

chorus: *2

outro:

 CAm
 CAmG
-For the timing u probable need to listen to the song-

please post comments corrections, this is my first tab so i dont know if its right or not, i think it is

god bless!


Am Am7 C D Em G
variations - click chord images
Transpose chords:
Tuning:
Cool service:
View: Size:
A  A  A
Rating:
Layout:
  • Currently 2.9/5 Stars.
  • 1
  • 2
  • 3
  • 4
  • 5
 
Accuracy:
  • Currently 2.9/5 Stars.
  • 1
  • 2
  • 3
  • 4
  • 5
 
click stars to rate
Chordie recommends:
Get acoustic guitar lessons and electric guitar lessons at JamPlay.com
Songbook:
Login to add this song to your songbook
Support the artist
Preview/buy this song
MSN Music
Why this non-profit ad?

 
login to add comments/video/corrections