Guitar Tabs, Chords and Lyrics


Higher  Hillsong

[F]   [G]   [Am]    [F]   [G]   [Am]                     
Intro:Tabs
e------------------------------------------------------|
b------10-----------12------------13--15---------------|
G------------------------------------------------------|4x
D----10--10------12----12------14----------------------|
A--8----------10-----------12--------------------------|
E------------------------------------------------------|



''for guitar 2 use higher chords''

Verse 1:
[F]For u[G]nto us[Am]
[F]a Sav[G]iour came[Am]    [C/E]     [F]
Ama[G]zing grace[Am] that takes the weight[F]   [G]   [Am]


Verse 2:
[F]His name[G] is hope[Am]
[F]for all[G] the earth[Am]    [C/E]     [F]
His name,[G] now and[Am] beyond this life[F],  [G]   [Am]
‘God [G]with us’[Am]


PreChorus:
And You[F] shall be called[G]   [Am]  Almighty God
And we[F] shall declare[G]   [F]


Chorus:
Your name[G] is hi[Am]gher, hig[F]her
Jesus Christ[G] Your name[C] is glo[G/B]rious [F]   [Dm7]
Your name[G] is grea[Am]ter, swee[F]ter
In all[F] the earth[G], hig[F]her, hig[G]her


Verse 3:
Now u[G]nto me,[Am]    [F]
the Christ[G] revealed[Am]    [C/E]     [F]
For you[G] so loved[Am] and love me still[F]   [G]   [Am]

e----7h0-----7h0-----7h0----7h0-----7h0----------------|
b--8-------8-------8------8------8---------------------|
G------------------------------------------------------|
D------------------------------------------------------|
A------------------------------------------------------|
E------------------------------------------------------|
e-----8h0-----8h0-----8h0------8h0-----8h0-------------|
b--10------10------10------10-------10-----------------|
G------------------------------------------------------|
D------------------------------------------------------|
A------------------------------------------------------|
E------------------------------------------------------|
e-----11h0-----11h0-----9h0-----11h0-----9h0-----------|
b--12-------12-------12------12-------12---------------|
G------------------------------------------------------|
D------------------------------------------------------|
A------------------------------------------------------|
E------------------------------------------------------|
e-----9h0-----9h0-----9h0----9h0-----11----------------|
b--11------11------11-----11------11-------------------|
G------------------------------------------------------|
D------------------------------------------------------|
A------------------------------------------------------|
E------------------------------------------------------|

''continue up2 bridge same tab''

Bridge:
[Em]So great[F] and gre[Am]atly to be praised[G/B] are You[G]
So great[F] and grea[C]tly to be praised[G/B]     [G]
And You[F] shall be called[G]   [Am]  Almighty God
And we[F] shall declare[G]
He's hig[F]her, hig[G]her, h[F/A]igher
h[G/B]igher, hig[F]her, hig[G]her, h[F/A]igher, h[G/B]igher  [](2nd: hig[G]her[])


Other:
[G]   [F/G]     [G]   [F/G]                                                           

Important: The song above is NOT stored on the Chordie server. The original song is hosted at www.guitaretab.com. Chordie works as a search engine and provides on-the-fly formatting. Chordie does not index songs against artists'/composers' will. To remove this song please click here.

Text color:
Chord color:
Chord grids: 
Font size:    
Page size: 

Am C C/E Dm7 Em F F/G G G/B
variations - click chord images

Login - add to songbook

Transpose chords

Tuning

Rating click stars to rate

Layout
Accuracy

SHARE PAGE  




You need to log in to post comments