Guitar Tabs, Chords and Lyrics


Run  Hillsong

E----------------------------------------------------------------|


B--11-11-11-11-9-11-12-11-11-11-7-7-9-9-6-6----------------------|


G----------------------------------------------------------------|

D----------------------------------------------------------------|
A----------------------------------------------------------------|
E----------------------------------------------------------------|
E-------------------------------9-9-9-9--------------------------|
B--11-11-11-11-9-11-12-11-11-11----------------------------------|
G----------------------------------------------------------------|
D----------------------------------------------------------------|
A----------------------------------------------------------------|
E----------------------------------------------------------------|
You were [D#m]God from the ou[B]tset,       [F#]        [C#]
[D#m]powerful and cr[B]eative       [F#]           [C#]
Yo[B]u had sought us here before
You [D#m]called all the s[C#]tars and the ear[B]th to existence
You are[D#m] God, You are[B] Holy      [F#]        [C#]
Hi[D#m]story�s Your[B] story      [F#]        [C#]
You who wa[B]s and is and fo[D#m]rever will [C#]be,
[B]God we live for Your glory
Chorus:

So we will [F#]run al[C#]together with hearts [D#m]aflame
L[B]ike a fire that can�t be[F#] tamed
O[G#m7]ur G[C#]od a[D#m]ll gl[B]ory to Your name, Jesus

You are G[D#m]od You are free[B]dom,        [F#]        [C#]
Y[D#m]ou�re alive now[B] within us   [F#]           [C#]
[B]You who sought us here before
Yo[D#m]u conquered the grav[C#]e
[B]You�re living on Your promise
So we will [F#]run al[C#]together with hearts [D#m]aflame
L[B]ike a fire that can�t be[F#] tamed
Our [C#m/G#m7]God all g[D#m]lory to Your name   [B]
So we will r[F#]un alt[C#]ogether with hearts a[D#m]flame
O[B]ur Desire That You Be Pr[F#]aised
O[F#]ur G[C#/G#m7]od a[D#m]ll gl[B]ory to Your name, Jesus
Then The Lead Solos The Intro To The Same Chords:

[C#]                                  
E----------------------------------------------------------------|

B--11-11-11-11-9-11-12-11-11-11-7-7-9-9-6-6----------------------|
G----------------------------------------------------------------|
D----------------------------------------------------------------|
A----------------------------------------------------------------|
E----------------------------------------------------------------|
E-------------------------------9-9-9-9--------------------------|
B--11-11-11-11-9-11-12-11-11-11----------------------------------|
G----------------------------------------------------------------|
D----------------------------------------------------------------|
A----------------------------------------------------------------|
E----------------------------------------------------------------|


After The Solo The Guitarist Palm mutes these Next Chords Building Back into the Final Chorus.

  [B]    [D#m]      [B]    [D#m]      [B]              

We will run[F#] altog[C#]ether with hearts afl[D#m]ame
L[B]ike a fire that can�t be[F#] tamed
Our [C#/G#m7]God all g[D#m]lory to Your name   [B]
We will run [F#]altoge[C#]ther with hearts afla[D#m]me
O[B]ur Desire That You Be Pr[F#]aised
O[F#]ur G[C#/G#m7]od a[D#m]ll gl[B]ory to Your name, Jesus

Important: The song above is NOT stored on the Chordie server. The original song is hosted at www.guitaretab.com. Chordie works as a search engine and provides on-the-fly formatting. Chordie does not index songs against artists'/composers' will. To remove this song please click here.

Text color:
Chord color:
Chord grids: 
Font size:    
Page size: 

B C# D#m F# G#m7
variations - click chord images

Login - add to songbook

Transpose chords

Tuning

Rating click stars to rate

Layout
Accuracy

Jango Player

SHARE PAGE  




You need to log in to post comments