Guitar Tabs, Chords and Lyrics


Desperate People  Hillsong

----------------------------------------------------------------------------



[F]You crossed the great div[Am]ide, You took our place
[F]You offered up Your l[Am]ife, though we have failed
[F]The veil was torn and l[Am]ove remained
You are h[C]oly Lo[G]rd
[F]Distraction cast as[Am]ide, we seek Your face
[F]We offer up our l[Am]ives to bring You praise
[F]A love the walls cann[Am]ot contain
You are h[C]oly Lo[G]rd
Refrain:
We're rising up in sp[Dm]irit and in tr[Am]uth
A living sacrif[F]ice we worship You[C]
A people undiv[Dm]ided Lord hear u[Am]s sing
We are You[F]rs and You are our King

Chorus:
This is ou[C]r love
[G]Hearts joined as one
[Am]Desperate for all You are[F]
Lord break down the[C]se walls
And se[G]e how we run
[Dm]Desperate for all You wa[F]nt
We chase Your hear[Am]t  [F]  [Am]

Verse:
[F]We didn't come to l[Am]eave here entertained
[F]Or worship under [Am]any other name
[F]We're crying out for [Am]You alone
You are h[C]oly Lo[G]rd

Refrain:
We're rising up in sp[Dm]irit and in tr[Am]uth
A living sacrif[F]ice we worship You[C]
A people undiv[Dm]ided Lord hear u[Am]s sing
We are You[F]rs and You are our King

Chorus:
This is ou[C]r love
[G]Hearts joined as one
[Am]Desperate for all You are[F]
Lord break down the[C]se walls
And se[G]e how we run
[Dm]Desperate for all You wa[F]nt
We chase Your heart

Adlib:

Chords:
Am G/B F C-G/B 2x

Lead:
e|-12-------------10-10-10-10--12-------------10-10-----------|
B|----12b13b12-10-----------------12b13b12-10-------13-12-----|
G|------------------------------------------------------------|
e|-12-------------10-10-10----15-15-15-15-13-13-13-12---------|
B|---12b13b12-10-----------13---------------------------------|
G|------------------------------------------------------------|
e|-12-------------10-10-10-10--12-------------10-10-----------|
B|----12b13b12-10-----------------12b13b12-10-------13-12-----|
G|------------------------------------------------------------|
e|-15-15-15-13-13-13-13-13s17-17-17---------------------------|
B|------------------------------------------------------------|
G|----------------------------------14-16-16-16-16-17-f-a-d-e-|


Show us the way to Your heart

Bridge:
[Am]We found our voice
[G/B]We found our cause
[F]We're on our knees[C], th[-]e ca[G/B]rpet's worn
[Am]As we join our hearts
[G/B]With distant sho[F]res and sing to You Lord

Chorus: 2x
This is ou[C]r love
[G]Hearts joined as one
[Am]Desperate for all You are[F]
Lord break down the[C]se walls
And se[G]e how we run
[Dm]Desperate for all You wa[F]nt
This is ou[C]r love
[G]Hearts joined as one
[Am]Desperate for all You are[F]
Lord break down the[C]se walls
And se[G]e how we run
[Dm]Desperate for all You wa[F]nt
We chase Your hear[Am]t  [F]  [Am]

Outro: F Am

----------------------------------------------------------------------------

Hi to my friends at CCC, namely Al, Kem, Vez (BeCKK tayu! yeah), Kuya Jon,
Grace, Melky, Aica, Abi, Ate Juvy, Ate Che, and Ate Jane, and my friends at
school, sina Daisie, Rose, Gem, Jolly, saka ung tropa namin, sila Eli, Dan,
Lex, Bert, JR, Jr, Ephs, saka si Mark na din. God bless you guys! ü

Important: The song above is NOT stored on the Chordie server. The original song is hosted at www.guitaretab.com. Chordie works as a search engine and provides on-the-fly formatting. Chordie does not index songs against artists'/composers' will. To remove this song please click here.

Text color:
Chord color:
Chord grids: 
Font size:    
Page size: 

Am C Dm F G G/B
variations - click chord images

Login - add to songbook

Transpose chords

Tuning

Rating click stars to rate

Layout
Accuracy

SHARE PAGE  




You need to log in to post comments