Guitar Tabs, Chords and Lyrics


Now That Youre Near  Hillsong

   [C#m]      [A]        [E]      [B]                                                                    
e|-X-X-X-X-X-X-X-X-X-X-X-X-X-X--|
B|-5-5-5-5-5-5-5-5-5-5-5-5-5-5--|
G|-4-4-4-4-4-4-4-4-4-4-4-4-4-4--|
D|-2-2-2-2-2-2-2-2-2-2-4-4-4-4--|
A|-4-4-4-0-0-0-0-X-X-X-2-2-2-2--|
E|-X-X-X-X-X-X-X-0-0-0-X-X-X-X--|  


(E.guitar, with a bit of distortion)

   [E]      [F#m]      [G#m]      [A5]                                                                      
e|-0-0-0-0-0-0-0-0-0-0-0-0------|
B|-0-0-0-0-0-0-0-0-0-0-0-0------|
G|-1-1-1-2-2-2-4-4-4-2-2-2------|
D|-2-2-2-4-4-4-6-6-6-2-2-2------|
A|-2-2-2-4-4-4-6-6-6-0-0-0------|
E|-0-0-0-2-2-2-4-4-4-X-X-X------|  


Verse:

[E]I stand before you [A5]Lord
And give you all my [C#m]praise
You're love is all I [A5]need
Jes[B]us you're all I need

[E]My life belongs to [A5]you
You gave you're life for[C#m] me
You're grace is all I [A5]need
Jes[B]us you're all I need
Refrain: (Use acoustic intro pattern)

[C#m]Hold me i[A]n your arms [E]
You never l[B]et me go[C#m]
I wanna s[A]pend ete[E]rnity with [B]You

Chorus:

[E]And now that you're n[B]ear
Everything is d[C#m]ifferent
Everything's so [A5]different, Lord
I [E]know I'm not the [B]same
My life you've [C#m]changed
I wanna be with Y[A]ou
I wanna be with Y[E]ou

Fill:

   [E]      [F#m]      [G#m]      [A5]                                                                      
e|-0-0-0-0-0-0-0-0-0-0-0-0------|
B|-0-0-0-0-0-0-0-0-0-0-0-0------|
G|-1-1-1-2-2-2-4-4-4-2-2-2------|
D|-2-2-2-4-4-4-6-6-6-2-2-2------|
A|-2-2-2-4-4-4-6-6-6-0-0-0------|
E|-0-0-0-2-2-2-4-4-4-X-X-X------|  


Verse:

[E]I stand before you [A5]Lord
And give you all my [C#m]praise
You're love is all I [A5]need
Jes[B]us you're all I need

[E]My life belongs to [A5]you
You gave you're life for[C#m] me
You're grace is all I [A5]need
Jes[B]us you're all I need
Refrain: (Use intro pattern)

[C#m]Hold me i[A]n your arms [E]
You never l[B]et me go[C#m]
I wanna s[A]pend ete[E]rnity with [B]You

Chorus:

[E]And now that you're n[B]ear
Everything is d[C#m]ifferent
Everything's so [A5]different, Lord
I [E]know I'm not the [B]same
My life you've [C#m]changed
I wanna be with Y[A]ou
I wanna be with Y[E]ou

Chords used:

E: 022100
A5: X02200
C#m: X46650
B: X24400
F#m: 244200
G#m: 466400


Rock on for Jesus!

***Send your comments and requests to schizophrenic29@yahoo.com or CP # 09202658112.


Important: The song above is NOT stored on the Chordie server. The original song is hosted at www.guitaretab.com. Chordie works as a search engine and provides on-the-fly formatting. Chordie does not index songs against artists'/composers' will. To remove this song please click here.

Text color:
Chord color:
Chord grids: 
Font size:    
Page size: 

A A5 B C#m E F#m G#m
variations - click chord images

Login - add to songbook

Transpose chords

Tuning

Rating click stars to rate

Layout
Accuracy

SHARE PAGE  




You need to log in to post comments