I Give You My Heart

Hillsong

 F-133211
 -       XX0232
CM7 - X35453
D/C - X3X232

Intro:

 CM7D/CBmEmD
e--------------------|--------------|
B-5-5-7-8-7-8-7------|-------5-7/8~~|
G-4-------------7----|-4-5/7--------|
D-5---------------7~~|--------------|
A-3------------------|--------------|
E--------------------|--------------|

 CM7D/CBmD
e--------------------|-------------5-|
B-5-5-7-8-7-8-7------|-------5-7/8-5-|
G-4-------------7----|-4-5/7-------5-|
D-5---------------7~~|-------------5-|
A-3------------------|-------------5-|
E--------------------|---------------|


Verse:

 GD/F#Em
 This is my de-  sire
 CGD/F#
To ho-nor you
 EmD/F#G
 Lord with all my   heart
 FC-D
I worship You       

 GD/F#Em
 All I have with-in me
 CGD/F#
give You praise
 EmD/F#G
 All that I a-   dore
 FC-D
Is in you       

Chorus:

 GD/F#
 Lord I give You my heart
 Am
I give You my soul
 CDG
live for you alone
 D/F#
Every breath that I take
 Am
Every moment I'm awake
 CDCM7
Lord have Your way in me

Instrumental:

 CM7D/CBmD
e--------------------|-------------5-|
B-5-5-7-8-7-8-7------|-------5-7/8-5-|
G-4-------------7----|-4-5/7-------5-|
D-5---------------7~~|-------------5-|
A-3------------------|-------------5-|
E--------------------|---------------|


Verse:

 GD/F#Em
 This is my de-  sire
 CGD/F#
To ho-nor you
 EmD/F#G
 Lord with all my   heart
 FC-D
I worship You       

 GD/F#Em
 All I have with-in me
 CGD/F#
give You praise
 EmD/F#G
 All that I a-   dore
 FC-D
Is in you       

Chorus:

 GD/F#
 Lord I give You my heart
 Am
I give You my soul
 CDG
live for you alone
 D/F#
Every breath that I take
 Am
Every moment I'm awake
 CDCM7
Lord have Your way in me

Coda:

 CM7D/C
 I give You my heart
 BmEm-D
I give You my soul     

 CM7D/C
 I give You my heart
 BmEm-D
I give You my soul     

***Just e-mail me at schizophrenic29@yahoo.com or text at CP # 09202658112 for comments,
questions, and requests.


Am Bm C Cm7 D D/C D/F# Em F G
variations - click chord images
Transpose chords:
Tuning:
Cool service:
View: Size:
A  A  A
Rating:
Layout:
  • Currently 2.7/5 Stars.
  • 1
  • 2
  • 3
  • 4
  • 5
 
Accuracy:
  • Currently 3.1/5 Stars.
  • 1
  • 2
  • 3
  • 4
  • 5
 
click stars to rate
Chordie recommends:
Check out these online guitar lessons
Songbook:
Login to add this song to your songbook
Support the artist
Preview/buy this song
MSN Music
Why this non-profit ad?

 
login to add comments/video/corrections