Guitar Tabs, Chords and Lyrics


My Future Decided   Hillsong



e----------------------------------|
B----------------------------------|
G----------------------------------|
D----------------------------------|
A-4-4-------------4-4-----5-5-4-4--|
E-----2-2-2-2-2-2-----2-2----------|

e-----------------------------------|
B-----------------------------------|
G-----------------------------------|
D-----------------------------------|
A-----------------------------------|
E-5-5-5-5-5-5-5-5-5-5-5-5-7-7-7-7---|

e----------------------------------|
B----------------------------------|
G----------------------------------|
D----------------------------------|
A4-4-------------4-4-----5-5-4-4---|
E----2-2-2-2-2-2-----2-2-----------|

e----------------------------------|
B----------------------------------|
G----------------------------------|
D----------------7-7-7-7-6-6-6-6-4-|
A----------------------------------|


Important: The song above is NOT stored on the Chordie server. The original song is hosted at www.guitaretab.com. Chordie works as a search engine and provides on-the-fly formatting. Chordie does not index songs against artists'/composers' will. To remove this song please click here.

This song is displayed as text-only. Transposing and tuning is only available for chordpro-songs.

Login - add to songbook

Rating click stars to rate

Layout
Accuracy

SHARE PAGE  




You need to log in to post comments