Guitar Tabs, Chords and Lyrics


Mad Man   Hives



This is one of my favorite songs by The Hives, and i love that little riff in the middle!

e|------------------------------------------------|
b|------------------------------------------------|
g|---------------------4-4-4-4-4-4-4-4------------|  several
d|---5-5-5-5--4-4-4-4--4-4-4-4-4-4-4-4------------|   times
a|---5-5-5-5--4-4-4-4--2-2-2-2-2-2-2-2------------|
E|---3-3-3-3--2-2-2-2-----------------------------|

e|------------------------------------------------|
b|---7b-7b---7b-7b--------------------------------|  Repeats while the other
g|------------------------------------------------|  other guitar does the
d|------------------------------------------------|  main tune
a|------------------------------------------------|
E|------------------------------------------------|

e|------------------------------------------------|
b|------------------------------------------------|
g|--------------------------4-- let --------------|  repeat
d|-----0---------0----------4-- ring -------------|  4 times
a|-------4-0-------4-0---2--2---------------------|


Important: The song above is NOT stored on the Chordie server. The original song is hosted at www.guitaretab.com. Chordie works as a search engine and provides on-the-fly formatting. Chordie does not index songs against artists'/composers' will. To remove this song please click here.

This song is displayed as text-only. Transposing and tuning is only available for chordpro-songs.

Login - add to songbook

Rating click stars to rate

Layout
Accuracy

SHARE PAGE  




You need to log in to post comments