Guitar Tabs, Chords and Lyrics


Declare Guerre Nuclaire   Hives



THE HIVES,Declare guerre Nuclaire

~=let ring
intro
 E|------------------------------------------|
 B|------------------------------------------|
 G|------------------------------------------|
 D|--14--9-10--7-9---4~----------------------|
 A|------------------------------------------|
 E|--12--7-8---5-7---2~----------------------|

riff 1
 E|----------------------------------0~------|
 B|----------------------------------0~------|
 G|--------------2-2-4-4-2-----------1~------| not sure
 D|--2-2---2-----2-2-4-4-2-----------2~------| about the last
 A|--2-2---2-----0-0-2-2-0-----------2~------|   strum


Important: The song above is NOT stored on the Chordie server. The original song is hosted at www.guitaretab.com. Chordie works as a search engine and provides on-the-fly formatting. Chordie does not index songs against artists'/composers' will. To remove this song please click here.

This song is displayed as text-only. Transposing and tuning is only available for chordpro-songs.

Login - add to songbook

Rating click stars to rate

Layout
Accuracy

SHARE PAGE  




You need to log in to post comments