Guitar Tabs, Chords and Lyrics


Abra Cadaver   Hives



-----------------------------------------|
               Abra Cadaver - The Hives -|
Tabbed by:Bexerwolf
Email:bexandtoby@hotmail.com

Tuning:Normal!

Main Tune:
e|---------------------------------------------------------------|
B|---------------------------------------------------------------|   Reapet
G|---------------------------------------------------------------|    Alot
D|--7/99--7/999--7/99-7/999--5555--7777--99--7/999---------------|
A|--7/99--7/999--7/99-7/999--5555--7777--99--7/999---------------|
E|--5/77--5/777--5/77-5/777--3333--5555--77--5/777---------------|

e|---------------------------------------------------------------|
B|---------------------------------------------------------------|   Played
G|--16------10-10-10-10--12-12-12-12--16-------------------------|   Over
D|--16-x16--10-10-10-10--12-12-12-12--16-x8----------------------|   The
A|--14------8--8--8--8---10-10-10-10--14-------------------------|   Main
E|---------------------------------------------------------------|   Tune

Chorus:

e|---------------------------------------------------------------|
B|---------------------------------------------------------------|
G|---------------------------------------------------------------|
D|--9-----5555--7777--9------------------------------------------|
A|--9-x16-5555--7777--9-x8---------------------------------------|
E|--7-----3333--5555--7------------------------------------------|

Outro:
e|---------------------------------------------------------------|
B|---------------------------------------------------------------|
G|---------------------------------------------------------------|
D|--7/99--7/999--7/99--7/999-------------------------------------|
A|--7/99--7/999--7/99--7/999-------------------------------------|
E|--5/77--5/777--5/77--5/777-------------------------------------|

| /  slide up
|   slide down
| h  hammer-on
| p  pull-off
| ~  vibrato
| +  harmonic
| x  Mute note


Important: The song above is NOT stored on the Chordie server. The original song is hosted at www.guitaretab.com. Chordie works as a search engine and provides on-the-fly formatting. Chordie does not index songs against artists/composers will. To remove this song please click here.

This song is displayed as text-only. Transposing and tuning is only available for chordpro-songs.

Login - add to songbook

Rating click stars to rate

Layout
Accuracy

SHARE PAGE  




You need to log in to post comments