Guitar Tabs, Chords and Lyrics

Gutless   Hole

No timing or rhythm shown.

PART 1 (all my friends are embryonic...)
E -0-------------0-x-0-------------3-|
B -2-------------2-x-2-------------3-|
G -2-3-----------2-x-2-3-----------0-|
D -2-3-3-3-3-3-3-2-x-2-3-3-3-3-3-3-0-|
A -0-1-3-3-3-3-3-0-x-0-1-3-3-3-3-3-2-|
E -0---1-0-1-0-1-0-x-0---1-0-1-0-1-3-|

PART 2 (gutless you're gutless...)
E -------------0-3-0-3-0-|
B -2---2---2---2-3-2-3-2-|
G -2---2---2---2-0-2-0-2-|
D -2-3-2-3-2-3-2-0-2-0-2-|
A -0-3-0-3-0-3-0-2-0-2-0-|
E ---1---1---1-0-3-0-3-0-|

PART 3 (I wanna drink the honeyblood...)
E -----------------------------------------------------|
B -8-8-8-7---------------------------------------------|
G ---------7-7---5-5-5-5-4-4-4-4-----------------------|
D -------------7-----------------5-5-5-4---------------|
A ---------------------------------------5-5-4---------|

Important: The song above is NOT stored on the Chordie server. The original song is hosted at Chordie works as a search engine and provides on-the-fly formatting. Chordie does not index songs against artists/composers will. To remove this song please click here.

This song is displayed as text-only. Transposing and tuning is only available for chordpro-songs.

Login - add to songbook

Rating click stars to rate


Jango Player


You need to log in to post comments