Chordie logo


She Walks On Me   Hole



Title : She Walks On Me
Artist : Hole
Album : Live Through This

Standard Tuning

Heavy Distorsion

This is my very first tab, feel free to comment.
____________________________________________________________________________

Intro 


E------------------------|
A-----------2~~~~~-------|  
D------------------------|
G--2h4-4-4---------------|
B------------------------|
E------------------------|

Strum very fast on this part

E-9-9-9-9-10-10-10-10-11-11-11-11-|
A---------------------------------|
D---------------------------------|
G---------------------------------|
B---------------------------------|
E---------------------------------|

E-12-12-12-12-13-13-13-13-14-14-14-14-15-15-15-15-|
A-------------------------------------------------|
D-------------------------------------------------|
G-------------------------------------------------|
B-------------------------------------------------|
E-------------------------------------------------|


Verses : Play that on verses and chorus

          
E-------------------------------------------------|
A-------------------------------------------------|
D---------9-9-9-9--8-8-8-8------------------------| Listen to the song
G--7-7-7--9-9-9-9--8-8-8-8--9-9-9-9---------------| to catch the beat
B--7-7-7--7-7-7-7--6-6-6-6--9-9-9-9---------------|
E--5-5-5--------------------7-7-7-7---------------|

Bridge :

          
E-------------------------------------------------|
A-------------------------------------------------|
D-------------------------------------------------|
G---7~~~~~--10~~~~~-------------------------------|
B---7-------10------------------------------------|
E---5-------8-------------------------------------|


Order :

- Intro
- Verse/Chorus
- Bridge
- Verse/Chorus
- Bridge
- Intro
- Verse/Chorus

Lyrics :

Geeks do not have pedigrees
Or pefect punk rock resumes
Or anorexic magazines
It smells like girl
It smells like girl

She walks over me
She walks over me

Hold you close like we both died
My ever present suicide
My stupid fuck
My blushing bride
Oh tear my heart out
Tear my heart out

She walks over me
She walks over me

I shut my mouth with you for a gag
I use the rest of you for a gag
Yea I gotta shut my mouth with you for a gag
I gotta use the rest of you

Daddy daddy
Please come here
Dont you trash me
Dont you dare
We look the same
We talk the same
We are the same
We are the same

She walks over me
She walks over me

I shut my mouth with you for a gag
I shut my mouth with you for a gag
Yea I gotta shut my mouth with you for a gag
I gotta use the rest of you

Now she sees she walks the same
And now you see she talks the same
You never know what you will get
You never know what youll forget

She walks over me
She walks over me
She walks

Rate Please ! Any comments or suggestions : lysa_petit@hotmail.com


Important: The song above is NOT stored on the Chordie server. The original song is hosted at www.guitaretab.com. Chordie works as a search engine and provides on-the-fly formatting. Chordie does not index songs against artists/composers will. To remove this song please click here.

This song is displayed as text-only. Transposing and tuning is only available for chordpro-songs.

Login - add to songbook

Rating click stars to rate

Layout
Accuracy

SHARE PAGE  




You need to log in to post comments