Guitar Tabs, Chords and Lyrics


She Walks Over Me   Hole



pretty sure this is right, email me if it needs correcting sashamo66@gmail.com

structure:

Intro x3
verse/chorus x18
bridge x4
verse/chorus x10
bridge x5
intro x3
verse/chorus x11

Intro
e---------------------    -----------------------------------------------|
B---------------------    -----------------------------------------------|
G----------7h8-7-7-7-- x3 -77778888999910-10-10-10-11-11-12-12-12-12-13b-|
D---------------------    -----------------------------------------------|
A--7h9-9-9------------    -----------------------------------------------|
E---------------------    -----------------------------------------------|


strum and repeat as needed
Verse/Chorus
e--------------|
B--------------|
G------9--8----|
D---7--9--8--9-|
A---7--7--6--9-|
E---5--------7-|


Bridge
e----------------|
B----------------|
G----------------|
A--7-777-----10--|
D--7-777-----10--|


Important: The song above is NOT stored on the Chordie server. The original song is hosted at www.guitaretab.com. Chordie works as a search engine and provides on-the-fly formatting. Chordie does not index songs against artists/composers will. To remove this song please click here.

This song is displayed as text-only. Transposing and tuning is only available for chordpro-songs.

Login - add to songbook

Rating click stars to rate

Layout
Accuracy

SHARE PAGE  




You need to log in to post comments