Guitar Tabs, Chords and Lyrics


All About You   Hoobastank



Tuning: Drop D, D-A-D-G-B-E

please rate, hope you like it, very easy to play

Intro:
E|-----------------------------------------------|
B|-------------15(x8)-14(x8)---------------------|     after the 15th time
G|--14/16(x16)-----------------14(x16)--16(x15)--|     start again with the
D|-----------------------------------------------|     slide from 14 to 16
A|-----------------------------------------------|
D|-----------------------------------------------|


Spill out my heart....

E|-----------------------------------------------|
B|-------------15(x8)-14(x8)---------------------|
G|--14/16(x16)-----------------14(x16)--16(x15)--|
D|-----------------------------------------------|
A|-----------------------------------------------|
D|-----------------------------------------------|


Go on, and on about yourself....

E|---------------------------17(x4)---------------------|
B|-------------15(x8)-14(x4)----------------------------|
G|--14/16(x16)-----------------------14(x16)--16(x15)---|
D|------------------------------------------------------|
A|------------------------------------------------------|
D|------------------------------------------------------|

your....SELF!!

E|------------------------------------|
B|------------------------------------|
G|------------------------------------|    2x (also can play D|0 instead
D|-9-9-9-9-12-12-9-12-x-9-9-9-7-7-7-7-|                      A|0    of
A|-9-9-9-9-12-12-9-12-x-9-9-9-7-7-7-7-|                      D|0   D|12
D|-9-9-9-9-12-12-9-12-x-9-9-9-7-7-7-7-|                            A|12
                                                                  D|12
...All about you !!

E|-----------------------------------------------------------|
B|-----------------------------------------------------------|
G|-------------------------------------------------------9-9-|
D|-9---9-9-9-9-9-9-9-9-9-9-9-9-x-7---7-7-7-7-7-7-7-7-7-7-7-7-|
A|-9---9-9-9-9-9-9-9-9-9-9-9-9-x-5---5-5-5-5-5-5-5-5-5-5-7-7-|
D|-9---9-9-9-9-9-9-9-9-9-9-9-9-x-----------------------------|

...the more you speak,the less I care about you,you,you,you

E|------------------------------------------------------------|
B|------------------------------------------------------------|
G|-------------------------------------7-9-10-----------------|
D|-7---7-7-7-7-7-7-9-9-9-9-7-7-7--x--9-7-9-10-----------------|
A|-7---7-7-7-7-7-7-7-7-7-7-5-5-5--x--9-5-7-8---/12------------|
D|-7---7-7-7-7-7-7----------------x--9------------h15\14-12~~-|


..go on and on and on about yourself....
E|---------------------------------------|
B|---------------------------------------|
G|-------7-7-7-9-9/10~-------------------|
D|-9-9-9-7-7-7-9-9/10~-------------------|
A|-9-9-9-5-5-5-7-7/8~~---/12-------------|
D|-9-9-9---------------------h15\14-12~~-|


E|-----------------------------------------|
B|-----------------------------------------|
G|-------7-7-7-/-10-10-10~-----------------|
D|-9-9-9-7-7-7-/-10-10-10~-----------------|
A|-9-9-9-5-5-5-/--8--8--8~~----------------|
D|-9-9-9-----------------------------------|

the places that you go....

E|-----------------------------------------|
B|-----------------------------------------|
G|-------7-7-7-/-10-10-10~-----------------|
D|-9-9-9-7-7-7-/-10-10-10~-----------------|
A|-9-9-9-5-5-5-/--8--8--8~~----------------|
D|-9-9-9-----------------------------------|

Outro:

E|------------------------------------|
B|------------------------------------|
G|------------------------------------|    1x (also can play D|0 instead
D|-9-9-9-9-12-12-9-12-x-9-9-9-7-7-7-7-|                      A|0    of
A|-9-9-9-9-12-12-9-12-x-9-9-9-7-7-7-7-|                      D|0   D|12
D|-9-9-9-9-12-12-9-12-x-9-9-9-7-7-7-7-|                            A|12
                                                                  D|12
E|-----------------------------------------|
B|-----------------------------------------|
G|-----------------------------------------|    1x
D|-9-9-9-9-12-12-9-12--9-12-9-12-9-12~-----|
A|-9-9-9-9-12-12-9-12--9-12-9-12-9-12~-----|
D|-9-9-9-9-12-12-9-12--9-12-9-12-9-12~-----|




Important: The song above is NOT stored on the Chordie server. The original song is hosted at www.guitaretab.com. Chordie works as a search engine and provides on-the-fly formatting. Chordie does not index songs against artists'/composers' will. To remove this song please click here.

This song is displayed as text-only. Transposing and tuning is only available for chordpro-songs.

Login - add to songbook

Rating click stars to rate

Layout
Accuracy

SHARE PAGE  




You need to log in to post comments