Guitar Tabs, Chords and Lyrics


The Christmas Song  Hootie and The Blowfish

[D]Ch[A]estnuts roasting on [D]an open fi[A]re
[D]Jack[A] Frost nipping at your nose[G]   [G]    [Gm]
[Bm]Yul[Bm]etide [Gm]carols being sung[D] b[D]y [D]a choir      [G#m]         [C#]
[F#m]And folks dress[Bm]ed up like Eskimos    [Em]      [A]    [D]    [A]

[D]Everybody knows
[A]a turkey and some mist[D]letoe[A]
[D]Help t[A]o make the season brig[G]ht. [G]    [Gm]
[Bm]Tin[Bm]y to[Gm]ts with [D]th[D]ei[D]r ey[G#m]es al[C#]l a-glow
[F#m]Will find it h[Bm]ard to [Em]sleep toni[A]ght [D]

[Am]They know that Sa[Am]nta's on his way;
[Am]He's loaded lots [Am]of toys and goodies on his sl[G]eigh.
[Gm]And ev'ry mot[C]her's child is gonna sp[F]y
[Bm]To see if rein[E]deer r[A]eally know how to fly.
[D]And so[A] I'm offering this s[D]imple phra[A]se
[D]To kid[A]s from one to ninety-t[G]wo[G]; [Gm]
[Bm]Although [A]it's been sai[D]d [Bm]many[Em] ti[A]mes, many ways
[D]"M[Bm]err[Em]y C[A]hr[D]istma[A]s to you."
Solo: (1:31)-----------------------------------------------------------|
-----------------------------------------------------------------------|
---------------------------------------------------------------------9-|
---12-11-9----------------------9-----------------9-11-12-11-9-11-12---|
------------12-10-9-10-12---------12-10-9-10-12------------------------|
-10-----------------------10-10----------------------------------------|


In a round with second guitar:
------------------------------------  -------------------------------------|
--10-10-10--7--9--5---11--13--10—10\  -12-10-------------------------------|
9-11-11-11--8--10-6---12--12--11—9\-  ------12-11-9------------------------|
------------------------------------  -------------12-11-9-----------------|
------------------------------------  ---------------------12-10-9-9h10----|(9)
------------------------------------  -------------------------------------|
--------------------------------------------------------------------------|
--------------------------------------------------------------------------|
--------------------------------------------------------------------------|
-------------------------------------------------------------12---12—(12--|
------9-10-12-10-9-10---------------------9--9--8-9--10-------------------|
10-12------------------7-10-7-10-10/12--12-12-11---7---9--10----10--10----|

[Am]They know that Santa's on his way;
[Am]He's loaded lots of toys and goodies on his sleigh[G].
[Gm]And ev'ry mot[C]her's child is gon[F]na spy
[Bm]To see [E]if [E]rei[E]ndeer[A] really know how to fly.

[D]And so[A] I'm offering this[D] simple [A]phrase
[D]To kid[A]s from one to nine[G]ty[G]-t[Gm]wo;
[Bm]Although [A]it's been sai[D]d [Bm]many time[Em]s, many ways
[D]"M[Bm]err[Em]y C[A]hr[D]istmas to you."
[D]"M[Bm]err[Em]y C[A]hr[D]istmas to you." [D]

CHORDS: D x5777x A 577655 Am 577555 G 355433 Gm 355333
E x7999x Em x79987 Bm x24432 F#m 244222 G#m 466444
C x3555x C# x4666x

Important: The song above is NOT stored on the Chordie server. The original song is hosted at www.guitaretab.com. Chordie works as a search engine and provides on-the-fly formatting. Chordie does not index songs against artists'/composers' will. To remove this song please click here.

Text color:
Chord color:
Chord grids: 
Font size:    
Page size: 

A Am Bm C C# D E Em F F#m G G#m Gm
variations - click chord images

Login - add to songbook

Transpose chords

Tuning

Rating click stars to rate

Layout
Accuracy

SHARE PAGE  




You need to log in to post comments