Guitar Tabs, Chords and Lyrics


Hey Sister Pretty  Hootie and The Blowfish

   [A2]    [B]     [C#]    [E]    [F#]    [G#]                                         
e:--0---0----0---0---2---4-|
B:--0---0----0---0---2---4-|
G:--2---4----6---1---2---4-|
D:--2---4----6---2---4---6-|
A:--0---2----4---2---4---6-|
E:--0---0----0---0---2---4-|


Intro
Rythm- C# A2 C# B A2 E A2 G#-x2

Lead Riff
e:-------4---------------4--5-4-----------|
B:------5------5--------5-5-----7-5-4-----|
G:---4h6----4h6-6-4--4h6------------------|
D:----------------------------------------|
A:----------------------------------------|
E:----------------------------------------|



Verse 1
[C#]Something so in[A2]nocent,
[C#]began then came[B] and went
[A2]keeps coming back a[E]round to h[A2]aunt you in the[G#] end.
[C#]You think we're fightin[A2]g now
[C#]it's all the same so[B]mehow
[A2]loves tortured a[E]rtist wrecks[A2] the masterpeice[G#] again.

Pre-Chorus
[F#]Used to be clear what the [G#]looking glass said
[A2]now everythings hazy baby nothings making sense.

Chorus
[E]Hey sister pre[B]tty, your l[C#]ips are on the[A2] city
[E]everybodys wai[B]ting for th[C#]e honeymoon to[A2] end.
[E]I'm still tryi[B]ng to stop [C#]this thing fro[A2]m dying
[E]don't forget t[B]o kiss me b[C#]efore you beat[A2] me up again.

Verse 2
[C#]Nothing so powe[A2]rful
[C#]yet so frustrat[B]ing
[A2]Nothing so perso[E]nal as a gif[A2]t thats from you[G#]r heart.
[C#]Nothing so dama[A2]ging
[C#]so devestating [B]
[A2]Nothing so c[E]loser yet s[A2]o far a[G#]part.

This is a lead riff Mark plays during the second verse
that is lightly muted, the part at the end is not exact.
e:---------------------------------------------|
B:--9-9-9-9h10--9-9-9-9h10--9-9-9-10-9---------|
G:---9-9-9-------9-9-9-------9-9-9-----11-9-8--|
D:---------------------------------------------|
A:---------------------------------------------|
E:---------------------------------------------|


Pre-Chorus
[F#]Used to be clear what the [G#]looking glass said
[A2]now everythings hazy baby nothings making sense.

Chorus
[E]Hey sister pre[B]tty, your l[C#]ips are on the[A2] city
[E]everybodys wai[B]ting for th[C#]e honeymoon to[A2] end.
[E]I'm still tryi[B]ng to stop [C#]this thing fro[A2]m dying
[E]don't forget t[B]o kiss me b[C#]efore you beat[A2] me up again.

I haven't Figured out the solo yet if i do i'll put it on
later.

Last Chorus
[E]Hey sister pre[B]tty, your l[C#]ips are on the[A2] city
[E]everybodys wai[B]ting for th[C#]e honeymoon to[A2] end.
[E]I'm still tryi[B]ng to stop [C#]this thing fro[A2]m dying
[E]don't forget to ki[B]ss me before you be[C#]at me up you[A2] beat me up [E]again

Song Order
Intro x1
Verse 1 x1
Pre-Chorus x1
Chorus x1
Intro x1
Verse 2 x1
Pre-Chorus x1
Chorus x1
Solo
Chorus x1
Last Chorus x1

Important: The song above is NOT stored on the Chordie server. The original song is hosted at www.guitaretab.com. Chordie works as a search engine and provides on-the-fly formatting. Chordie does not index songs against artists'/composers' will. To remove this song please click here.

Text color:
Chord color:
Chord grids: 
Font size:    
Page size: 

A2 B C# E F# G#
variations - click chord images

Login - add to songbook

Transpose chords

Tuning

Rating click stars to rate

Layout
Accuracy

SHARE PAGE  




You need to log in to post comments