eToCache5 = ""; ?> Charlotte by Hope Sandoval - guitar chords, guitar tabs and lyrics - chordie

Charlotte

Hope Sandoval

E----------0-----------0---------------0-----------0----------]

B--------1---1-------1---1---1-------1---1-------1---1---1----]
G------0-----------2-------2-------0-----------2-------2------]
D----2-----------2---------------2-----------2----------------]
A--3-----------0---------------3-----------0------------------]
E-------------------------------------------------------------]
E----------0-----------0---------------0-----------0----------]
B--------1---1-------1---1---1-------1---1-------1---1---1----]
G------0-----------2-------2-------0-----------2-------2------]
D----2-----------2---------------2-----------2----------------]
A--3-----------0---------------3-----------0------------------]
E-------------------------------------------------------------]
Intro: C Am C Am C Am C Am
 CAmCAm
 She's got a rose in her smile       

 CAmCAm
 She says she knows and she does       

 CAmCAm
 And her mind aches and her heart breaks   
 CAmCAm
 'Cause she's silly               
 CAm
 Gonna teach her to sin

 CAm
'Cause I'm always knowing where she's been

 CAm
Livin' on the wrong side of the tracks

 CAmCAm
 And you know she's    never......Coming back

 CAmCAm
 She's got a smile like a flower      

 CAmCAm
 She looks so fine by the hour       

 CAmCAm
 But her mind aches and her heart breaks  

 CAmCAm
 'Cause she's silly                  
 CAmC
 Gonna teach her to steal 'Cause I'm always knowing

 Am
how she feels

 CAmCAm
 Livin' on the wrong side of the tracks      

 CAmCAm
 And I know she's never...Coming back       

 CAmCAm
 Oh   no.................Oh   no   

Interlude:C Am C Am C Am C Am

 CAmCAm
 And her mind aches and her heart breaks

 CAmCAm
 'Cause she's silly...               

 CAmCAm
 To..........me...........To.......me

Outro: C Am C Am C Am C Am C Am C Am C Am C Am C Am

lyrics from Shana & Vanessa at:
http://www.alwaysontherun.net/hope.htm

Changes or comments, corrections-Please E-mail me
minstrel71@yahoo.com (Stephen Mabry)
Check out my other posting for Edie Brickell's
"Circle" and my Kate Wolf/John Denver listings.


Am C
variations - click chord images
Transpose chords:
Tuning:
Cool service:
View: Size:
A  A  A
Rating:
Layout:
  • Currently 3/5 Stars.
  • 1
  • 2
  • 3
  • 4
  • 5
 
Accuracy:
  • Currently 2/5 Stars.
  • 1
  • 2
  • 3
  • 4
  • 5
 
click stars to rate
Chordie recommends:
Learn to play guitar with video-based, online guitar lessons at JamPlay.com
Songbook:
Login to add this song to your songbook
Support the artist
Preview/buy this song
MSN Music
Why this non-profit ad?

 
login to add comments/video/corrections